>
 >
Good Morning Good Morning 2

Good Morning Good Morning 2 Bass Tabs

Beatles - Good Morning Good Morning 2 chords, tabs, tablatures, lyrics

Guitar lessons | Add/correct | Request | Top 50 tabs Artists:  A B C D E F G H I J K L M N O P Q R S T U V W X Y Z 0-9

Good Morning Good Morning 2 Bass Tabs – Beatles

CD, Sheet music, Poster

Do you like Good Morning Good Morning 2? Share with your friends now
Bass TabsBass Tabs v2ChordsTabs
  -------------------------------------------------------------------

    THE BEATLES - GOOD MORNING GOOD MORNING (TAKE 8) From ANTHOLOGY
                  II. Released on 19 March 1996.

  -------------------------------------------------------------------






    INTRO
    00:00

  G|---------------------------------|---------------------------------|
  D|-7-------------------------------|---------------------------------|
  A|-----x-x-x---x-x-5---------------|-----------------5---x-x-5---x-x-|
  E|-------------------------5---5-5-|-5---x-x-5---x-x-----------------|





  G|---------------------------------|---------------------------------|
  D|---------------------------------|---------------------------------|
  A|-----------------x-x-x-x-x---x---|---------------------------------|
  E|-5---x-x-x-x-x-x-----------------|-5---0---------------------------|





    VERSE
    00:08

  G|-----------------------------------------|
  D|-----------------------------------------|
  A|-------------7-------5-------5-------5---|
  E|-5-----------------------3-------3-------|





  G|-----------------------------------------|
  D|-----------------------------------------|
  A|-----5-------5-------5-----------7-------|
  E|-3-------3-------3-------5---------------|





  G|-----------------------------------------|
  D|-----------------------------------------|
  A|-0---4---5---7-------5-------5-------5---|
  E|-------------------------3-------3-------|





  G|-------------------------|---------------------------------|
  D|-------------------------|---------------------------------|
  A|-----5-------5-------5---|-------------------------4-------|
  E|-3-------3-------3-------|-5---5-5-5---5---5---7-------5---|





  G|-----------------------------------------|
  D|-----------------------------------------|
  A|-5---0---5---0---5---0---5---0---5---0---|
  E|-----------------------------------------|





  G|---------------------------------|-------------------------|
  D|---------------------------------|-------------------------|
  A|-7---7---7---7---7---------------|-0---4---5---7-------5---|
  E|---------------------2---4---0---|-------------------------|





  G|-------------------------|---------------------------------|
  D|-------------------------|---------------------------------|
  A|-----5-------5-------5---|-------------4---5---5---5-------|
  E|-3-------3-------3-------|-5---5---5-------------------4---|





  G|---------------------------------|
  D|---------------------------------|
  A|---------------------------------|
  E|-5-------------------------------|





    VERSE
    00:30

  G|-----------------------------------------|
  D|-----------------------------------------|
  A|-0---4---5---7-------0-------5-------5---|
  E|-------------------------3-------3-------|





  G|-----------------------------------------|
  D|-----------------------------------------|
  A|-----5-------5-------5---0-------7-------|
  E|-3-------3-------3-----------------------|





  G|-----------------------------------------|
  D|-7---7---5-------------------------------|
  A|-------------7-------0-------5-------5---|
  E|-------------------------3-------3-------|





  G|-------------------------|---------------------------------|
  D|-------------------------|---------------------------------|
  A|-----5-------5-------5---|--------------4--5-------5-------|
  E|-3-------3-------3-------|-5-------5--------------------3--|





    BRIDGE
    00:41

  G|---------------------------------|---------------------------------|
  D|-------------------------4----7--|-------------------------4----7--|
  A|--------------4--5---------------|--------------4--5---------------|
  E|-5-------5-----------------------|-5-------5-----------------------|





  G|---------------------------------|---------------------------------|
  D|-------------------------4----7--|-------------------------4----7--|
  A|--------------4--5---------------|--------------4--5---------------|
  E|-5-------5-----------------------|-5-------5-----------------------|





  G|---------------------------------|
  D|---------------------------------|
  A|---------------------------------|
  E|-5---------------0---3---5---0---|





    VERSE
    00:51

  G|-----------------------------------------|
  D|-----------------------------------------|
  A|-0---4---5---7-------0-------5-------5---|
  E|-------------------------3-------3-------|





  G|-----------------------------------------|
  D|-----------------------------------------|
  A|-----5-------5-------5-----------7-------|
  E|-3-------3-------3-------5---------------|





  G|-----------------------------------------|
  D|-----------------------------------------|
  A|-0-----------7-------0-------5-------5---|
  E|-------------------------3-------3-------|





  G|-------------------------|---------------------------------|
  D|-------------------------|---------------------------------|
  A|-----5-------5-------5---|-------------------------4-------|
  E|-3-------3-------3-------|-5---5-5-5-5-5---5---7-------5---|





  G|-----------------------------------------|
  D|-----------------------------------------|
  A|-5---0---5---0---5---0---5---0---5---0---|
  E|-----------------------------------------|





  G|---------------------------------|-------------------------|
  D|---------------------------------|-------------------------|
  A|-7---7---7---7-7-----------------|-0---4---5---7-----------|
  E|-----------------0---2---3---4---|---------------------0---|





  G|-------------------------|---------------------------------|
  D|-------------------------|---------------------------------|
  A|-----5-------5-------5---|-------------4---5---5-5-5-------|
  E|-3-------3-------3-------|-5---5-5-5-------------------4---|





  G|---------------------------------|
  D|---------------------------------|
  A|---------------------------------|
  E|-5-------------------------------|





    GUITAR SOLO
    01:13

  G|-----------------------------------------|
  D|-----------------------------------------|
  A|-0---4---5---7---------------5-------5---|
  E|-------------------------3-------3-------|





  G|-----------------------------------------|
  D|-----------------------------------------|
  A|-----5-------5-------5---0-------7-------|
  E|-3-------3-------3-----------------------|





  G|-----------------------------------------|-------------------------|
  D|-7---7---5---------------5-------5-------|-5-------5-------5-/-7---|
  A|-------------7-------5-------5-------5---|-----5-------5-----------|
  E|-----------------------------------------|-------------------------|





  G|---------------------------------|
  D|-7---7-7-7---7-------------------|
  A|---------------------0---0---0---|
  E|---------------------------------|





    BRIDGE
    01:24

  G|---------------------------------|---------------------------------|
  D|---------------------------------|---------------------------------|
  A|--------------4--5-------5-------|--------------4--5-------5-------|
  E|-5-------5--------------------4--|-5-------5--------------------4--|





  G|---------------------------------|---------------------------------|
  D|---------------------------------|-------------------------4----7--|
  A|--------------4--5-------5-------|--------------4--5---------------|
  E|-5-------5--------------------4--|-5-------5-----------------------|





  G|---------------------------------|
  D|---------------------------------|
  A|---------------------------------|
  E|-5---------------0---0---0---0---|





    VERSE
    01:34

  G|-----------------------------------------|
  D|-----------------------------------------|
  A|-0---4---5---7---------------5-------5---|
  E|---------------------0---3-------3-------|





  G|-----------------------------------------|
  D|-----------------------------------------|
  A|-----5-------5-------5---0-------7-------|
  E|-3-------3-------3-----------------------|





  G|-----------------------------------------|-------------------------|
  D|-7---7---5---------------5-------5-------|-5-------5-------5-------|
  A|-------------7-------5-------5-------5---|-----5-------5-------5---|
  E|-----------------------------------------|-------------------------|





  G|---------------------------------|
  D|5/7------------------------------|
  A|---------0-------0---2---4---0---|
  E|---------------------------------|





  G|-----------------------------------------|
  D|-----------------------------------------|
  A|-5---0---5---0---5---0---5---0---5---0---|
  E|-----------------------------------------|





  G|---------------------------------|
  D|---------------------------------|
  A|-7---7-7-7-7-7-------------------|
  E|-----------------0---2---4---0---|





  G|-------------------------|-------------------------|
  D|-------------------------|-------------------------|
  A|-0---4---5---7-----------|-----5-------5-------5---|
  E|---------------------0---|-3-------3-------3-------|





     OUTRO
     01:52

  G|---------------------------------|---------------------------------|
  D|---------------------------------|---------------------------------|
  A|-------------4---5---5-5-5-------|---------------------------------|
  E|-5---5-5-5-------------------3---|-5---------------------------3---|





  G|---------------------------------|---------------------------------|
  D|---------------------------------|---------------------------------|
  A|-------------4---5---5-5-5-------|---------------------------------|
  E|-5---5-5-5-------------------3---|-5---------------------------3---|





  G|---------------------------------|---------------------------------|
  D|---------------------------------|---------------------------------|
  A|-------------4---5-5-5-5-5-------|---------------------------------|
  E|-5---5-5-5-------------------3---|-5---------------------------3---|




     02:04

  G|---------------------------------|---------------------------------|
  D|---------------------------------|---------------------------------|
  A|-----------------x-x-x-x-x-------|---------------------------------|
  E|-x-x-x-x-x-x-x---------------3---|-5---------------------------3---|





  G|---------------------------------|---------------------------------|
  D|---------------------------------|---------------------------------|
  A|-------------4---5---5---5-------|-------------4---5---5---5-------|
  E|-5---5---5-------------------3---|-5---5---5-------------------3---|





  G|---------------------------------|---------------------------------|
  D|---------------------------------|---------------------------------|
  A|-------------4---5---5---5-------|-------------4---5---5---5-------|
  E|-5---------------------------3---|-5---5---5-------------------3---|




     02:16

  G|---------------------------------|---------------------------------|
  D|---------------------------------|---------------------------------|
  A|-------------4-5-x-x-x-x-x-------|-------------4---5---5---5-------|
  E|-x-x-x-x-x-------------------3---|-5---5---5-------------------3---|





  G|---------------------------------|---------------------------------|
  D|---------------------------------|---------------------------------|
  A|-------------4---5---5---5-------|-------------4---5---5---5-------|
  E|-5---5-----------------------3---|-5---5---5-------------------3---|





  G|---------------------------------|---------------------------------|
  D|---------------------------------|---------------------------------|
  A|-------------4---5---5---5-------|-------------4---5---5---5-------|
  E|-5---5---5-------------------3---|-5---5---5-------------------3---|




     02:27

  G|---------------------------------|---------------------------------|
  D|---------------------------------|---------------------------------|
  A|-------------4---5---5---5-------|-------------5---5---5---5-------|
  E|-5---5---5-------------------3---|-5---5---5-------------------3---|





  G|---------------------------------|---------------------------------|
  D|---------------------------------|---------------------------------|
  A|-------------5---5---5---5-------|---------------------------------|
  E|-5---5---5-------------------3---|-5---------------------3-5---5\--|





Comments


Popular Beatles tabs & chords
Eleanor Rigby Bass Tabs
A Hard Days Night 7 Chords
Goodnight Chords
Happy Rishikesh Song Chords
Love Me Do Chords
All I've Got To Do Tabs
Day Tipper Tabs
From Me To You Tabs
Happy Rishikesh Song Tabs
I Want To Tell You Tabs


Song lyrics



↑ Back to top | Tablatures and chords are parodies/interpretations of the original songs. You may use it for private study, scholarship, research or language learning purposes only
© 2014 AZChords.com Contact us | Privacy policy | DMCA | Add/correct tabs | Request tabs | Top 50 tabs