>
 >
Good Morning Good Morning

Good Morning Good Morning Guitar Tabs

Beatles - Good Morning Good Morning chords, tabs, tablatures, lyrics

Guitar lessons | Add/correct | Request | Top 50 tabs Artists:  A B C D E F G H I J K L M N O P Q R S T U V W X Y Z 0-9

Good Morning Good Morning Guitar Tabs – Beatles

CD, Sheet music, Poster

Do you like Good Morning Good Morning? Share with your friends now
Bass TabsBass Tabs v2ChordsTabs
    -----------------------------------------------------------

    BEATLES - GODD MORNING, GOOD MORNING (Lennon & McCartney).
              From SGT. PEPPER'S LONELY HEARTS CLUB BAND album.
              Released on the 1st June, 1967.
   
    -----------------------------------------------------------







    This song has constant time signature changes. I though that
    maybe it would be worth some explanation about them, because 
    I did not want to overcharge the tab, so I should say that
    measures with 4 beats are in 4/4 time, the ones with 3 beats 
    are in 3/4 time, the ones with 5 beats are in 5/4 time and 
    those with 2 beats in 2/2. No doubt, John wanted something
    different here. I'm just amazed at the great amount of work 
    it must have meant for producer George Martin, more than for 
    those fine musicians from the renowned "Sounds Incorporated" 
    who played his amusing brass score, who just needed to read 
    and rehearse it a little. 

 
    


    Good morning good morning 
    good morning good morning 
    good morning, ah 

    Nothing to do to save his life 
    call his wife in. 
    Nothing to say but what a day 
    how's your boy been. 
    Nothing to do, it's up to you 
    I've got noting to say but it's O.K. 

    Good morning good morning 
    good morning ah 

    Going to work don't want to go 
    feeling low down. 
    Heading for home you start to roam 
    then you're in town. 

    Everybody knows there's nothing doing 
    Everything is closed, it's like a ruin 
    Everyone you see is half asleep 
    And you're on your own, you're in the street 

    After a while you start to smile 
    now you feel cool 
    Then you decide to take a walk by the old school. 
    Nothing has changed it's still the same 
    I've got nothing to say but it's O.K. 
    Good morning good morning 
    good morning ah 

    People running 'round it's five o'clock 
    Everywhere in town it's getting dark 
    Everyone you see is full of life 
    It's time for tea and meet the wife 

    Somebody needs to know the time 
    glad that I'm here. 
    Watching the skirts you start to flirt 
    no you're in gear. 
    Go to a show you hope she goes 
    I've got nothing to say but it's O.K. 
    Good morning good morning 
    good morning good morning ...

 

    INTRO
    00:03

    A               D               A               D
  e|5------ ------- 5------ -------|5------ 5------ 5------ 5------|
  B|5---------------7--------------|5-------5-------7-------7------|
  G|6---------------7--------------|6-------6-------7-------7------|
  D|7---------------7--------------|7-------7-------7-------7------|
  A|7---------------5--------------|7-------7-------5-------5------|
  E|5---------------5--------------|5-------5-------5-------5------|
                               
  e|------- ------- ------- -------|------- ------- ------- -------|
  B|------------3------------------|------------3------------------|
  G|--------0---2---------------2--|------------2------------------|
  D|2---2---2---4---------------2--|------------4------------------|
  A|4---4-------5---------------4--|------------5------------------|
  E|5------------------------------|-------------------------------|  
                                Good            Good            Good
                                    morning         morning


                                        x x x x x x x x x x x x x
    A               D               A
  e|5------ 5------ 5------ 5------|5------ ------- ------- -------|
  B|5-------5-------7-------7------|5------------------------------|
  G|6-------6-------7-------7------|6------------------------------|
  D|7-------7-------7-------7------|7------------------------------|
  A|7-------7-------5-------5------|7------------------------------|
  E|5-------5-------5-------5------|5------------------------------|

  e|------- ------- ------- -------|------- ------- ------- -------|
  B|-------------------------------|-------------------------------|
  G|--------0---2---------------2--|-------------------------------|
  D|2---2---2---4---------------2--|-------------------------------|
  A|4---4-------5---------------4--|-------------------------------|
  E|5------------------------------|-------------------------------|  
                Good            Good            ah
    morning          morning        morning,



    00:12

  e|5---5-- ----7-- -------|3------ 3------ 3------ 3------|
  B|5---5-------8----------|3-------3-------3-------3------|
  G|6---6-------9----------|4-------4-------4-------4------|
  D|7---7-------9----------|5-------5-------5-------5------|
  A|7---7-------7----------|5-------5-------5-------5------|
  E|5---5------------------|3-------3-------3-------3------|
    Nothing to  do     to   save    his life    call    his  


                    X

  e|3------ 5------ -------|
  B|3-------5--------------|
  G|4-------6--------------|
  D|5-------7--------------|
  A|5-------7--------------|
  E|3-------5--------------|
    wife    in.


    00:16

  e|5------ ----7-- -------|3------ 3------ 3------ 3------ 3------|
  B|5-----------8----------|3-------3-------3-------3-------3------|
  G|6-----------9----------|4-------4-------4-------4-------4------|
  D|7-----------9----------|5-------5-------5-------5-------5------|
  A|7-----------7----------|5-------5-------5-------5-------5------|
  E|5----------------------|3-------3-------3-------3-------3------|
    Nothing to  say     but what    a   day     How's   your
                                                            boy




  e|5------ ------- ------- -------|
  B|5------------------------------|
  G|6------------------------------|
  D|7------------------------------|
  A|7------------------------------|
  E|5------------------------------|
   
  e|------- ------- ------- -------|
  B|-------------------------------|
  G|-------------------------------|
  D|7-------7-----7-7---9--11---7--|
  A|-------------------------------|
  E|5-------5-----5-5---7---9---5--|
    been.



    00:22
    D
  e|5------ 5------ 5------|5------ 5------|
  B|7-------7-------7------|7-------7------|
  G|7-------7-------7------|7-------7------|
  D|7-------7-------7------|7-------7------|
  A|5-------5-------5------|5-------5------|
  E|5-------5-------5------|5-------5------|

  e|------- ------- -------|------- -------|
  B|-----------------------|---------------|
  G|7----------------------|---------------|
  D|-----------------------|---------------|
  A|5----------------------|---------------|
  E|-----------------------|---------------|             
    Nothing to  do,    it's up      to  you 



    E
  e|0------ 0------ 0------ 0------|
  B|0-------0-------0-------0------|
  G|1-------1-------1-------1------|
  D|2-------2-------2-------2------|
  A|2-------2-------2-------2------|
  E|0-------0-------0-------0------|

  e|------- ------- ------- -------|
  B|-------------------------------|
  G|-------------------------------|
  D|2-------2-----2-2---4---6---2--|
  A|-------------------------------|
  E|0-------0-----0-0---2---4---0--|
                    I've    got



    A           G
  e|------- ----3-- -------|3------ 3------ 3------|
  B|5-------x---3----------|3-------3-------3------|
  G|6-------x---4----------|4-------4-------4------|
  D|7-------x---5----------|5-------5-------5------|
  A|7-----------5----------|5-------5-------5------|
  E|5-----------3----------|3-------3-------3------|

  e|------- ------- -------|------- ------- -------|
  B|-----------------------|-----------------------|
  G|-----6--7---9----------|7----------------------|
  D|7-------------------7--|-----------------------|
  A|-----4--5---7----------|5----------------------|
  E|5-------------------5--|-----------------------|
    nothing to  say,    but it's    O.  K.      Good
                                           


                                        x x x x x x x x x x x x x
    A               D               A
  e|5------ 5------ 5------ 5------|5------ ------- ------- -------|
  B|5-------5-------7-------7------|5------------------------------|
  G|6-------6-------7-------7------|6------------------------------|
  D|7-------7-------7-------7------|7------------------------------|
  A|7-------7-------5-------5------|7------------------------------|
  E|5-------5-------5-------5------|5------------------------------|

  e|------- ------- ------- -------|------- ------- ------- -------|
  B|------------------------7---10-|-------------------------------|
  G|--------6----9--7--------------|-------------------------------|
  D|7-----------------------4----7-|7------------------------------|
  A|--------4----7--5--------------|-------------------------------|
  E|5------------------------------|5------------------------------|
                Good            Good            ah
    morning         morning         morning,




    00:33 

  e|5------ ----7-- -------|3------ 3------ 3------ 3------|
  B|5-----------8----------|3-------3-------3-------3------|
  G|6-----------9----------|4-------4-------4-------4------|
  D|7-----------9----------|5-------5-------5-------5------|
  A|7-----------7----------|5-------5-------5-------5------|
  E|5----------------------|3-------3-------3-------3------|

  e|0------ ----0-- -------|------- ------- ------- -------|
  B|2-----------2----------|3-----------------------3------|
  G|2-----------2----------|4-----------------------4------|
  D|--------0--------------|5-----------------------5------|
  A|0---4-------0-------0--|-------------------------------|
  E|-----------------------|3-----------------------3------|
    Going   to  work    don't       to  go      feeling 
                            want


                    X

  e|3------ 5------ -------|
  B|3-------5--------------|
  G|4-------6--------------|
  D|5-------7--------------|
  A|5-------7--------------|
  E|3-------5--------------|

  e|------- 0------ -------|
  B|--------2--------------|
  G|--------2--------------|
  D|-----------------------|
  A|--------0--------------|
  E|-----------------------|
    low     down. 




  e|5------ ----7-- -------|3------ 3------ 3------ 3------ 3------|
  B|5-----------8-------x--|3-------3-------3-------3-------3------|
  G|6-----------9-------x--|4-------4-------4-------4-------4------|
  D|7-----------9-------x--|5-------5-------5-------5-------5------|
  A|7-----------7----------|5-------5-------5-------5-------5------|
  E|5----------------------|3-------3-------3-------3-------3------|

  e|0------ ----0-- -------|------- ------- ------- ------- -------|
  B|2-----------2----------|3-----------------------3--------------|
  G|2-----------2----------|4-----------------------4--------------|
  D|--------0--------------|5-----------------------5--------------|
  A|0---4-------0-------0--|---------------------------------------|
  E|-----------------------|3-----------------------3--------------|
    Heading for home    you start   to  roam    then    you're  
                                                            in


    00:43

  e|5------ 5------ 5------ 5------|5-----5 5------ 5------ 5------|
  B|5-------5-------7-------7----x-|5-----5-5-------7-------7------|
  G|6-------6-------7-------7----x-|6-----6-6-------7-------7------|
  D|7-------7-------7-------7----x-|7-----7-7-------7-------7------|
  A|7-------7-------5-------5------|7-----7-7-------5-------5------|
  E|5-------5-------5-------5------|5-----5-5-------5-------5------|

  e|------- ------- ------- -------|------- ------- ------- -------|
  B|------------------------7---10-|------------------------7---10-|
  G|--------6----9--7--------------|--------6----9--7--------------|
  D|7-----------------------4----7-|7-----------------------4----7-|
  A|--------4----7--5--------------|--------4----7--5--------------|
  E|5------------------------------|5------------------------------| ...
    town                              Everybody          there's doing
                                                 knows       nothing 


 
  e|5------ 5------ 5------ 5------|5------ 5------ 5------ 5------|
  B|5-------5----x--7-------7------|5-------5----x--7-------7------|
  G|6-------6----x--7-------7------|6-------6----x--7-------7------|
  D|7-------7----x--7-------7------|7-------7----x--7-------7------|
  A|7-------7-------5-------5------|7-------7-------5-------5------|
  E|5-------5-------5-------5------|5-------5-------5-------5------|
      Everything            like       Everyone  see      is   asleep
              is closed, it's  a ruin                       half 

 
                                                    x x x x x  x  x

  e|5--5--5 5------ 5--5--5 5------|5------ ------- ------- -------|
  B|5--5--5-5----x--7--7--7-7----x-|5------------------------------|
  G|6--6--6-6----x--7--7--7-7----x-|6------------------------------|
  D|7--7--7-7----x--7--7--7-7----x-|7------------------------------|
  A|7--7--7-7-------5--5--5-5------|7------------------------------|
  E|5--5--5-5-------5--5--5-5------|5------------------------------|
      and   on your         in the 
         you're  own,    you're  street


                  
    00:54

  e|5---5-- ----7-- -------|3------ 3------ 3------ 3------|
  B|5---5-------8----------|3-------3-------3-------3------|
  G|6---6-------9----------|4-------4-------4-------4------|
  D|7---7-------9----------|5-------5-------5-------5------|
  A|7---7-------7----------|5-------5-------5-------5------|
  E|5---5------------------|3-------3-------3-------3------|

  e|0------ ----0-- -------|------- ------- ------- -------|
  B|2-----------2----------|3-----------------------3------|
  G|2-----------2----------|4-----------------------4------|
  D|--------0--------------|5-----------------------5------|
  A|0---4-------0-------0--|-------------------------------|
  E|-----------------------|3-----------------------3------|
    After   a   while   you start   to  smile   now     you 



                    X

  e|3------ 5------ -------|
  B|3-------5--------------|
  G|4-------6--------------|
  D|5-------7--------------|
  A|5-------7--------------|
  E|3-------5--------------|

  e|------- 0------ -------|
  B|--------2--------------|
  G|--------2--------------|
  D|-----------------------|
  A|--------0--------------|
  E|-----------------------|
    feel    cool.



    00:59

  e|5---5-- ----7-- -------|3------ 3------ 3------ 3------ 3------|   
  B|5---5-------8-------x--|3-------3-------3-------3-------3------|
  G|6---6-------9-------x--|4-------4-------4-------4-------4------|
  D|7---7-------9-------x--|5-------5-------5-------5-------5------|
  A|7---7-------7----------|5-------5-------5-------5-------5------|
  E|5---5------------------|3-------3-------3-------3-------3------|

  e|0------ ----0-- -------|------- ------- ------- ------- -------|
  B|2-----------2----------|3-----------------------3--------------|
  G|2-----------2----------|4-----------------------4--------------|
  D|--------0--------------|5-----------------------5--------------|
  A|0---4-------0-------0--|---------------------------------------|
  E|-----------------------|3-----------------------3--------------|
    Then    decide      to  tale    a   walk    by      the
        you




  e|5------ 5------ 5------ 5------|
  B|5-------8-------8-------8------|
  G|6-------6-------6-------6------|
  D|7-------5-------5-------5------|
  A|7-------7-------7-------7------|
  E|5-------5-------5-------5------|

  e|------- ------- ------- -------|
  B|-------------------------------|
  G|-------------------------------|
  D|7-------7-----7-7---9--11---7--|
  A|-------------------------------|
  E|5-------5-----5-5---7---9---5--|
    old     school.



    01:05

  e|5------ 5------ 5------|5------ 5------|
  B|7-------7-------7------|7-------7------|
  G|7-------7-------7------|7-------7------|
  D|7-------7-------7------|7-------7------|
  A|5-------5-------5------|5-------5------|
  E|-----------------------|---------------|

  e|------- ------- -------|------- -------|
  B|-----------------------|---------------|
  G|7----------------------|---------------|
  D|-----------------------|---------------|
  A|5----------------------|---------------|
  E|-----------------------|---------------|
    Nothing has changed it's        the same 
                            still




  e|0------ 0------ 0------ 0------|
  B|0-------0-------0-------0------|
  G|1-------1-------1-------1------|
  D|2-------2-------2-------2------|
  A|2-------2-------2-------2------|
  E|0-------0-------0-------0------|

  e|------- ------- ------- -------|
  B|-------------------------------|
  G|-------------------------------|
  D|2-------2-----2-2---4---6---2--|
  A|-------------------------------|
  E|0-------0-----0-0---2---4---0--|
                    I've    got




  e|------- ----3-- -------|3------ 3------ 3------|
  B|5---5-------3----------|3-------3-------3------|
  G|6---6-------4----------|4-------4-------4------|
  D|7---7-------5----------|5-------5-------5------|
  A|7---7-------5----------|5-------5-------5------|
  E|5---5-------3----------|3-------3-------3------|

  e|------- ------- -------|------- ------- -------|
  B|-----------------------|-----------------------|
  G|-----6--7---9----------|7----------------------|
  D|7-------------------7--|-----------------------|
  A|-----4--5---7----------|5----------------------|
  E|5-------------------5--|-----------------------|
    nothing to  say,    but it's    O.  K.      Good 
                                                


                                        x x x x x x x x x x x x x

  e|5------ 5------ 5------ 5------|5------ ------- ------- -------|
  B|5-------5-------7-------7------|5------------------------------|
  G|6-------6-------7-------7------|6------------------------------|
  D|7-------7-------7-------7------|7------------------------------|
  A|7-------7-------5-------5------|7------------------------------|
  E|5-------5-------5-------5------|5------------------------------|

  e|------- ------- ------- -------|------- ------- ------- -------|
  B|------------------------7---10-|-------------------------------|
  G|--------6----9--7--------------|-------------------------------|
  D|7-----------------------4----7-|7------------------------------|
  A|--------4----7--5--------------|-------------------------------|
  E|5------------------------------|5------------------------------|

  e|------- ------- ------- -------|------- ------- ------- -------|
  B|-------------------------------|----------------------------15-|
  G|-------------------------------|------------------------1414---|
  D|-------------------------------|-------------------------------|
  A|-------------------------------|-------------------------------|
  E|-------------------------------|-------------------------------|
    morning     Good            Good            ah
                    morning         morning,


    SOLO
    01:17

  e|------- ------- -------|------- ------- ------- ------- -------|
  B|--15-15-15-\-----------|---------------------------------------|
  G|14---------------------|14-~------------12P11\9-11P9\7--9P7\6--|
  D|-----------------------|---------------------------------------|
  A|-------------0---------|---------------------------------------|
  E|-----------------------|---------------------------------------|


            X

  e|------- ------- -------|------- ------- ------- ------- -------|
  B|-----------------------|---------------------------------------|
  G|7-------6H7P6----------|----14-~--------12P11\9-11P9\7--9P7\6--|
  D|-----------------------|---------------------------------------|
  A|----------------0------|---------------------------------------|
  E|-----------------------|---------------------------------------|




  e|------- -------|
  B|---------------|
  G|7-----------6--|
  D|---------------|
  A|---------------|
  E|---------------|




    01:26
  e|5------ 5------ 5------ 5------|5----5- 5----5- 5------ 5----5-|   
  B|5-------5-------7-------7------|5----5--5----5--7-------7----7-|
  G|6-------6-------7-------7------|6----6--6----6--7-------7----7-|
  D|7-------7-------7-------7------|7----7--7----7--7-------7----7-|
  A|7-------7-------5-------5------|7----7--7----7--5-------5----5-|
  E|5-------5-------5-------5------|5----5--5----5--5-------5----5-|

  e|------- ------- ------- -------|------- ------- ------- -------|
  B|------------------------7---10-|------------------------7---10-|
  G|--------6----9--7--------------|--------6----9--7--------------|
  D|7-----------------------4----7-|7-----------------------4----7-|
  A|--------4----7--5--------------|--------4----7--5--------------|
  E|5------------------------------|5------------------------------|

  e|------- ------- ------- -------|------- ------- ------- -------|
  B|-------------------------------|----15B17--R15-----------------|
  G|----------/-14-~---------------|----------------12------14-----|
  D|-------------------------------|-------------------------------|
  A|-------------------------------|-------------------------------|
  E|-------------------------------|-------------------------------|
                                      People running     it's o'clock 
                                                 'round     five
 
   
 
  e|5------ 5------ 5----5- 5------|5----5- 5----5- 5------ 5------|
  B|5-------5-------7----7--7------|5----5--5----5--7-------7------|
  G|6-------6-------7----7--7------|6----6--6----6--7-------7------|
  D|7-------7-------7----7--7------|7----7--7----7--7-------7------|
  A|7-------7-------5----5--5------|7----7--7----7--5-------5------|
  E|5-------5-------5----5--5------|5----5--5----5--5-------5------|

  e|------- ------- ------- -------|------- ------- ------- -------|
  B|------------------------7---10-|------------------------7---10-|
  G|--------6----9--7--------------|--------6----9--7--------------|
  D|7-----------------------4----7-|7-----------------------4----7-|
  A|--------4----7--5--------------|--------4----7--5--------------|
  E|5------------------------------|5------------------------------|    
      Everywhere town    it's    dark  Everyone  see     is full life 
                 in         getting            you              of
 

    
                                        x x x x x x x x x x x x x

  e|5------ 5------ 5------ 5------|5------ ------- ------- -------|
  B|5-------5-------7-------7------|5------------------------------|
  G|6-------6-------7-------7------|6------------------------------|
  D|7-------7-------7-------7------|7------------------------------|
  A|7-------7-------5-------5------|7------------------------------|
  E|5-------5-------5-------5------|5------------------------------|

  e|------- ------- ------- -------|------- ------- ------- -------|
  B|------------------------7---10-|-------------------------------|
  G|--------6----9--7--------------|-------------------------------|
  D|7-----------------------4----7-|7------------------------------|
  A|--------4----7--5--------------|-------------------------------|
  E|5------------------------------|5------------------------------| 

  e|------- ------- ------- -------|------- ------- 16B17-~ -------|
  B|-------------------------------|-------------------------------|
  G|-------------------------------|----------14-------------------|
  D|-------------------------------|----14-------------------------|
  A|-------------------------------|-------------------------------|
  E|-------------------------------|-------------------------------|
       It's time for     and  the  
                    tea     meet wife.



    01:37
    Somebody needs to know the time 
    glad that I'm here. 
    Watching the skirts you start to flirt 
    now you're in ...



  e|5------ 5----5- 5------ 5------|
  B|5-------5----5--5-------5------|
  G|6-------6----6--6-------6------|
  D|7-------7----7--5-------5------|
  A|7-------7----7--7-------7------|
  E|5-------5----5--5-------5------|

  e|------- ------- ------- -------|
  B|-------------------------------|
  G|-------------------------------|
  D|7-------7-----7-7---9--11---7--|
  A|-------------------------------|
  E|5-------5-----5-5---7---9---5--|

  e|------- ------- ------- -------|
  B|-------------------------------|
  G|---B17R15P13-------------------|
  D|------------14-~---------------|
  A|-------------------------------|
  E|-------------------------------|
    gear.



    01:48
  e|5------ 5------ 5------|5------ 5------|
  B|7-------7-------7------|7-------7------|  
  G|7-------7-------7------|7-------7------|
  D|7-------7-------7------|7-------7------|
  A|5-------5-------5------|5-------5------|
  E|5-------5-------5------|5-------5------|  

  e|------- ------- -------|------- -------|
  B|-----------------------|---------------|
  G|7----------------------|---------------|
  D|-----------------------|---------------|
  A|5----------------------|---------------|
  E|-----------------------|---------------|
    Go  to  a  show     you hope    she goes 




  e|0------ 0------ 0------ 0------|
  B|0-------0-------0-------0------|
  G|1-------1-------1-------1------|
  D|2-------2-------2-------2------|
  A|2-------2-------2-------2------|
  E|0-------0-------0-------0------|

  e|------- ------- ------- -------|
  B|-------------------------------|
  G|-------------------------------|
  D|2-------2-----2-2---4---6---2--|
  A|-------------------------------|
  E|0-------0-----0-0---2---4---0--|
                    I've    got




  e|------- ----3-- -------|3------ 3------ 3------|
  B|5---5-------3----------|3-------3-------3------|
  G|6---6-------4----------|4-------4-------4------|
  D|7---7-------5----------|5-------5-------5------|
  A|7---7-------5----------|5-------5-------5------|
  E|5---5-------3----------|3-------3-------3------| 

  e|------- ------- -------|------- ------- -------|
  B|-----------------------|-----------------------|
  G|-----6--7---9----------|7----------------------|
  D|7-------------------7--|-----------------------|
  A|-----4--5---7----------|5----------------------|
  E|5-------------------5--|-----------------------|
    nothing to  say,    but it's    O.  K.      Good
                                                
                                            


                                        x x x x x x x x x x x x x

  e|5------ 5------ 5------ 5------|5------ 5------ 5------ 5------|
  B|5-------5-------7-------7------|5-------5-------7-------7------|
  G|6-------6-------7-------7------|6-------6-------7-------7------|
  D|7-------7-------7-------7------|7-------7-------7-------7------|
  A|7-------7-------5-------5------|7-------7-------5-------5------|
  E|5-------5-------5-------5------|5-------5-------5-------5------|

  e|------- ------- ------- -------|------- ------- ------- -------|
  B|------------------------7---10-|----------------------------2--|
  G|--------6----9--7--------------|----------------------------2--|
  D|7-----------------------4----7-|7---------------------------2--|
  A|--------4----7--5--------------|----------------------------4--|
  E|5------------------------------|5------------------------------|     
    morning     Good            Good                            Good
                    morning        


                                                X x x   X   X x x 

  e|5------ 5------ 5------ 5------|5------ 5------ 5------ 5------|
  B|5-------5-------7-------7------|5-------5-------7-------7------|
  G|6-------6-------7-------7------|6-------6-------7-------7------|
  D|7-------7-------7-------7------|7-------7-------7-------7------|
  A|7-------7-------5-------5------|7-------7-------5-------5------|
  E|5-------5-------5-------5------|5-------5-------5-------5------|

  e|------- ------- ------- -------|------- ------- ------- -------|
  B|2---2---2---3---------------2--|------------3---------------2--|
  G|2---2---2---2---------------2--|------------2---------------2--|
  D|2---2---2---4---------------2--|------------4---------------2--|
  A|4---4---4---5---------------4--|------------5---------------4--|
  E|-------------------------------|-------------------------------|
    morning     Good            Good                            Good
                    morning


    CODA 
    01:59 

  e|5------ 5------ 5------ 5------|5------ 5------ 5------ 5------|
  B|5-------5-------7-------7------|5-------5-------7-------7------|
  G|6-------6-------7-------7------|6-------6-------7-------7------|
  D|7-------7-------7-------7------|7-------7-------7-------7------|
  A|7-------7-------5-------5------|7-------7-------5-------5------|
  E|5-------5-------5-------5------|5-------5-------5-------5------|

  e|------- ------- ------- -------|------- ------- ------- -------|
  B|2---2---2---3---------------2--|------------3---------------2--|
  G|2---2---2---2---------------2--|------------2---------------2--|
  D|2---2---2---4---------------2--|------------4---------------2--|
  A|4---4---4---5---------------4--|------------5---------------4--|
  E|-------------------------------|-------------------------------|
    morning     Good            Good                            Good
                    morning




  e|5------ 5------ 5------ 5------|5------ 5------ 5------ 5------|
  B|5-------5-------7-------7------|5-------5-------7-------7------|
  G|6-------6-------7-------7------|6-------6-------7-------7------|
  D|7-------7-------7-------7------|7-------7-------7-------7------|
  A|7-------7-------5-------5------|7-------7-------5-------5------|
  E|5-------5-------5-------5------|5-------5-------5-------5------|

  e|------- ------- ------- -------|------- ------- ------- -------|
  B|2---2---2---3---------------2--|------------3---------------2--|
  G|2---2---2---2---------------2--|------------2---------------2--|
  D|2---2---2---4---------------2--|------------4---------------2--|
  A|4---4---4---5---------------4--|------------5---------------4--|
  E|-------------------------------|-------------------------------| ....









        B  Bend
        R  Release
        /  Slide up
        \  Slide down
        H  Hammer-on
        P  Pull-off
        ~  Vibrato
        +  Harmonic
        x  Mute note
        .  Play note like a dot in standard notation
        ^  Ties two notes together
        (. Pause





Comments


Popular Beatles tabs & chords
A Hard Days Night 3 Chords
Happiness Is A Warm Gun 2 Chords
And I Love Her 4 Tabs
Being For The Benefit Of Mr. Kite Tabs
Birthday 1 Tabs
Can't Buy Me Love 1 Tabs
Cant Buy Me Love 2 Tabs
Dizzy Miss Lizzy 1 Tabs
Happiness Is 2 Tabs
I Will 1 Tabs


Song lyrics



↑ Back to top | Tablatures and chords are parodies/interpretations of the original songs. You may use it for private study, scholarship, research or language learning purposes only
© 2014 AZChords.com Contact us | Privacy policy | DMCA | Add/correct tabs | Request tabs | Top 50 tabs