» » »

Golden Slumbers Tabs (ver.4)

Artists:  A B C D E F G H I J K L M N O P Q R S T U V W X Y Z # 

Golden Slumbers Tabs (ver.4)

Beatles
Rating:
0/5 (0 votes)

Hard to play? Try these video lessons and learn fast.
                Carry That Weight Guitar Solo:
e|-------------------------------------------------------------------------|
b|-------------------------------------------------------------------------|
g|---------------------------------------14--------------------------------|
D|-------10----12br--10--10--12--10--12b----12r--12--10--12--10------------|
A|-10h12----12--------------------------------------------------12-10-12~~-|
E|-------------------------------------------------------------------------|

Carry That Weight Final:
e|-------------------------------------------------------------------------|
b|----------------------0--------------------------------------------------|
g|---------0----------0---0----------2-----------2-------------------------|
D|------2-----------0---------------2------------2-------------------------|
A|---3------------2---------------0--------------0-------------------------|
E|-------------------------------------------------------------------------|
The End Opening:
e|-------------------------------------------------------------------------|
b|---------------------0-------------------------------3---------------5---|
g|---------0---------0---0----------2---------2--------2--------4------4---|
D|------2----------0--------------2-----------2--------0--------4------2---|
A|---3-----------2--------------0-------------0-----------------2----------|
E|-------------------------------------------------------------------------|

e|-------------------------------------------------------------------------|
b|-------------------------------------------------------------------------|
g|-------------------------------------------------------------------------|
D|-------------------------------------------------------------------------|
A|----0----3----4----5----7----8----9~~----------------3-----2-----0-------|
E|-------------------------------------------------------------------------|

e|-------------------------------------------------------------------------|
b|-----------3--------------5----------------------------------------------|
g|---2-------2-------4------4----------------------------------------------|
D|---2-------0-------4------2----------------------------------------------|
A|---0---------------2----------0---3---4---5---7---8---9~~----3---2---0---|
E|-------------------------------------------------------------------------|

DRUM SOLO

e|-------------------------------------------------------------------------|
b|-----8---------7---------------(Repeat this until the slow part)---------|
g|-----7---------6---------------------------------------------------------|
D|-----6---------5---------------------------------------------------------|
A|-------------------------------------------------------------------------|
E|-------------------------------------------------------------------------|

GUITAR SOLO
And in the end
The love you take
Is equal to the love 
e|-------------------------------------------------------------------------|
b|-------------------------------------------------------------------------|
g|---9-----7-----5------4--------------------------------------------------|
you make

e|-------------------------------------------------------------------------|
b|----------------------------14---14br---14-------------------------------|
g|--------------------12--14-------------------12h14~~---------------------|
D|-------------12--14------------------------------------------------------|
A|-----12--14--------------------------------------------------------------|
E|-------------------------------------------------------------------------|

e|-------------------------------------------------------------------------|
b|--17---17br---15--------------------17hb~~~~-----------------------------|
g|------------------------18br---15----------------------------------------|
D|-------------------------------------------------------------------------|
A|-------------------------------------------------------------------------|
E|-------------------------------------------------------------------------|

Thats it is very easy if you practice this
            
Hard to play? Try these video lessons and learn fast. | Correct




comments powered by Disqus
↑ Back to top | Tablatures and chords are parodies/interpretations of the original songs. You may use it for private study, scholarship, research or language learning purposes only