» » »

Beatles, Glad All Over Bass tabs (ver.1)

Artists:  A B C D E F G H I J K L M N O P Q R S T U V W X Y Z # 

Glad All Over Bass tabs (ver.1)

Beatles Tabs
 Rating:
4/5 (4 votes)
Glad All Over lessons Tabs too difficult? Try these video lessons and learn fast
1
                GLAD ALL OVER

Written by Roy Bennett, Sid Tepper & Aaron Schroeder

Pop Go The Beatles #10 (Aug. 20, 1963)

INTRO
  t=185
G|---------------------------------|---------------------------------|
D|-7-------------------------------|-7-----------------------7/------|
A|-----------------7---------------|-----------------7---------------|
E|---------------------------------|---------------------------------|

G|---------------------------------|---------------------------------|
D|-----------------9---------------|---------------------------------|
A|-7-------------------------------|-7-----------------------6-------|
E|---------------------------------|---------7-------9---------------|

VERSE

G|---------------------------------|---------------------------------|
D|---------------------------------|-------------------------6-------|
A|-7-------------------------------|-7-------7-------9---------------|
E|-----------------7---------------|---------------------------------|

G|---------------------------------|---------------------------------|
D|-7-------------------------------|-7-------------------------------|
A|-----------------7---------------|-----------------7---------------|
E|---------------------------------|---------------------------------|

G|---------------------------------|---------------------------------|
D|-9-------------------------------|-9-------------------------------|
A|-----------------9---------------|-----------------9-----------9---|
E|---------------------------------|---------------------------------|

G|---------------------------------|---------------------------------|
D|-9-------------------------------|-9-------------------------------|
A|-----------------9---------------|-----------------9---------------|
E|---------------------------------|---------------------------------|

G|---------------------------------|---------------------------------|
D|-7-------------------------------|-9-------------------------------|
A|-----------------7---------------|-----------------9---------------|
E|---------------------------------|---------------------------------|

G|---------------------------------|---------------------------------|
D|---------------------------------|---------------------------------|
A|-7-------------------------------|-7-----------------------6-------|
E|-----------------7---------------|---------7-------9---------------|

VERSE

G|---------------------------------|---------------------------------|
D|---------------------------------|-------------------------6-------|
A|-7-------------------------------|-7-------7-------9---------------|
E|-----------------7---------------|---------------------------------|

G|---------------------------------|---------------------------------|
D|-7-------------------------------|-7-------------------------------|
A|-----------------7---------------|-----------------7---------------|
E|---------------------------------|---------------------------------|

G|---------------------------------|---------------------------------|
D|-9-------------------------------|-9-------------------------------|
A|-----------------9---------------|-----------------9---------------|
E|---------------------------------|---------------------------------|

G|---------------------------------|---------------------------------|
D|-9-------------------------------|-9-------------------------------|
A|-----------------9---------------|-----------------9---------------|
E|---------------------------------|---------------------------------|

G|---------------------------------|---------------------------------|
D|-7-------------------------------|-9-------------------------------|
A|-----------------7---------------|-----------------9---------------|
E|---------------------------------|---------------------------------|

G|---------------------------------|---------------------------------|
D|-----------------9---------------|-------------------------6-------|
A|-7-------------------------------|-7-------7-------9---------------|
E|---------------------------------|---------------------------------|

BRIDGE

G|---------------------------------|---------------------------------|
D|-7-------------------------------|-7-------------------------------|
A|-----------------7---------------|-----------------7---------------|
E|---------------------------------|---------------------------------|

G|---------------------------------|---------------------------------|
D|---------------------------------|-------------------------6-------|
A|-7-------------------------------|-7-------7-------9---------------|
E|-----------------7---------------|---------------------------------|

G|---------------------------------|---------------------------------|
D|-7-------------------------------|-7-------------------------------|
A|-----------------7---------------|-----------------7---------------|
E|---------------------------------|---------------------------------|

G|---------------------------------|---------------------------------|
D|-9-----------9---9-----------9---|-9-----------9---9-------9-------|
A|---------------------------------|---------------------------------|
E|---------------------------------|---------------------------------|

VERSE

G|---------------------------------|---------------------------------|
D|-----------------9---------------|-------------------------6-------|
A|-7-------------------------------|-7-------7-------9---------------|
E|---------------------------------|---------------------------------|

G|---------------------------------|---------------------------------|
D|-7-------------------------------|-7-------------------------------|
A|-----------------7---------------|-----------------7---------------|
E|---------------------------------|---------------------------------|

G|---------------------------------|---------------------------------|
D|-9-------------------------------|-9-------------------------------|
A|-----------------9---------------|-----------------9-----------9---|
E|---------------------------------|---------------------------------|

G|---------------------------------|---------------------------------|
D|-9-------------------------------|-9---------------------------9---|
A|-----------------9---------------|-----------------9---------------|
E|---------------------------------|---------------------------------|

G|---------------------------------|---------------------------------|
D|-7-------------------------------|-9-------7-------6---------------|
A|-----------------7---------------|-------------------------9-------|
E|---------------------------------|---------------------------------|

G|---------------------------------|---------------------------------|
D|-----------------9---------------|-------------------------6-------|
A|-7-------------------------------|-7-------7-------9---------------|
E|---------------------------------|---------------------------------|

GUITAR SOLO

G|---------------------------------|---------------------------------|
D|-------------------------4-------|-7-------4-----------------------|
A|---------4-------7---------------|-----------------7-------4-------|
E|-5-------------------------------|---------------------------------|

G|---------------------------------|---------------------------------|
D|---------------------------------|---------------------------------|
A|-----------------2---------------|-7-------------------------------|
E|-0-------4---------------4-------|---------4-------7-------4-------|

G|---------------------------------|---------------------------------|
D|---------------------------------|---------------------------------|
A|---------6-------9-------6-------|-----------------5-------6-------|
E|-7-------------------------------|-5-------------------------------|

G|---------------------------------|---------------------------------|
D|-------------------------6-------|-7---------------7---------------|
A|-7-------7-------9---------------|---------------------------------|
E|---------------------------------|---------------------------------|

BRIDGE

G|---------------------------------|---------------------------------|
D|-7-------------------------------|-7-----------7-------------------|
A|-----------------7---------------|-----------------7---------------|
E|---------------------------------|---------------------------------|

G|---------------------------------|---------------------------------|
D|---------------------------------|-------------------------6-------|
A|-7-------------------------------|-7-------7-------9---------------|
E|-----------------7---------------|---------------------------------|

G|---------------------------------|---------------------------------|
D|-7-------------------------------|-7-------------------------------|
A|-----------------7---------------|-----------------7---------------|
E|---------------------------------|---------------------------------|

G|---------------------------------|---------------------------------|
D|-9-----------9-----------9-------|-9-----------9-----------9-------|
A|---------------------------------|---------------------------------|
E|---------------------------------|---------------------------------|

VERSE

G|---------------------------------|---------------------------------|
D|-----------------9---------------|-------------------------6-------|
A|-7-------------------------------|-7-------7-------9---------------|
E|---------------------------------|---------------------------------|

G|---------------------------------|---------------------------------|
D|-7-------------------------------|-7-------------------------------|
A|-----------------7---------------|-----------------7---------------|
E|---------------------------------|---------------------------------|

G|---------------------------------|---------------------------------|
D|-9-------------------------------|-9-------------------------------|
A|-----------------9---------------|---------------------------------|
E|---------------------------------|-----------------7---------------|

G|---------------------------------|---------------------------------|
D|-9-------------------------------|-9-------------------------------|
A|-----------------9---------------|-----------------9---------------|
E|---------------------------------|---------------------------------|

G|---------------------------------|---------------------------------|
D|-7-------------------------------|-9-------------------------------|
A|-----------------7---------------|-----------------9---------------|
E|---------------------------------|---------------------------------|

G|---------------------------------|---------------------------------|
D|-----------------9---------------|-------------------------6-------|
A|-7-----------7-----------9-------|-7-------7-------9---------------|
E|---------------------------------|---------------------------------|

G|---------------------------------|---------------------------------|
D|-7-------------------------------|-9-------------------------------|
A|-----------------7---------------|-----------------9---------------|
E|---------------------------------|---------------------------------|

G|---------------------------------|---------------------------------|
D|-----------------9---------------|-------------------------6-------|
A|-7-------------------------------|-7-------7-------9---------------|
E|---------------------------------|---------------------------------|

G|---------------------------------|---------------------------------|
D|---------------------------------|---------------------------------|
A|---------4-------7-------4-------|---------6-------9-------6-------|
E|-5-------------------------------|-7-------------------------------|

G|---------------------------------|---------------------------------|
D|---------------------------------|---------------------------------|
A|-7-------5-------4---------------|-7-----------7-----------7-------|
E|-------------------------7-------|-----7---9-----------------------|
            
Submit corrections

comments powered by Disqus
↑ Back to top | Beatles Bass for Glad All Over. Lyrics for acoustic guitar and electric guitar. 1 Tablatures and chords are parodies/interpretations of the original songs. You may use it for private study, scholarship, research or language learning purposes only