» » »

Beatles, Girl Bass tabs (ver.1)

Artists:  A B C D E F G H I J K L M N O P Q R S T U V W X Y Z # 

Girl Bass tabs (ver.1)

Beatles Tabs
 Rating:
4/5 (4 votes)
Girl lessons Tabs too difficult? Try these video lessons and learn fast
                Girl
The Beatles
Written by John Lennon and Paul McCartney; released on album "Rubber Soul"

A wonderful love song, written by John.

Verse:
G|------ ------ ------ ------|------ ------ ------ ------|
D|---------------------------|---------------------------|
A|---------------------------|---------------------------|
E|---------------------------|---------------------------|
                                                   Is  there


G|------ ------ ------ ------|------ ------ ------ ------|
D|--------------5------------|---------------------------|
A|3--------------------------|3----------3---------3-----|
E|---------------------------|--------------3------------|
  anybo -  dy going to listen to     my     sto -  ry,


G|------ ------ ------ ------|------ ------ ------ ------|
D|3--------------------3-----|--------------5------------|
A|--------------3------------|6--------------------------|
E|---------------------------|---------------------------|
  all a- bout the   who    to stay?                  She's
                girl   came                            the

G|------ ------ ------ ------|------ ------ ------ ------|
D|--------------5------------|--------------5------------|
A|3--------------------------|3------------------------3-|
E|---------------------------|---------------------------|
  kind   girl   want so    it makes  you    sor -  ry,
      of     you       much

G|------ ------ ------ ------|------ ------ ------ ------|
D|3--------------------------|---------------------------|
A|--------------3------------|3--------------------------|
E|---------------------------|--------------3----------3-|
  still  don't      a  single day                  Ah,
      you    regret
Refrain:
G|------ ------ ------ ------|------ ------ ------ ------|
D|---------------------------|---------------------------|
A|6-------------5------------|---------------------------|
E|---------------------------|8-------------6------------|
  girl!


G|------ ------ ------ ------|------ ------ ------ ------|
D|---------------------------|---------------------------|
A|6-------------5------------|---------------------------|
E|---------------------------|8-------------6------------|
  Girl,         girl!                                When
                                                       I
Verse:
G|------ ------ ------ ------|------ ------ ------ 5-----|
D|--------------5------------|--------------5------------|
A|3--------------------------|3--------------------------|
E|---------------------------|---------------------------|
  think  all the times tried  hard       to leave  her,
      of            I      so

G|------ ------ ------ ------|------ ------ ------ ------|
D|3--------------------------|--------------5------------|
A|--------------3------------|6--------------------------|
E|---------------------------|---------------------------|
  she will   to me  and    to cry,                   And
         turn          start                           she

G|------ ------ ------ ------|------ ------ ------ ------|
D|--------------5------------|--------------5------------|
A|3--------------------------|3--------------------------|
E|---------------------------|---------------------------|
  promises  the Earth  me, and I     be  -  lieve  her,
                    to

G|------ ------ ------ ------|------ ------ ------ ------|
D|3--------------------------|---------------------------|
A|--------------3------------|3------------------------3-|
E|---------------------------|--------------3------------|
  after  all this   I         know why             Ah,
                time       don't
Refrain:
G|------ ------ ------ ------|------ ------ ------ ------|
D|---------------------------|---------------------------|
A|6-------------5------------|---------------------------|
E|---------------------------|8-------------6------------|
  girl!


G|------ ------ ------ ------|------ ------ ------ ------|
D|---------------------------|---------------------------|
A|6----------6--5------------|---------------------------|
E|---------------------------|8----------8--6------------|
  Girl,         girl!

Bridge:
G|------- ------- ------- -------|------- ------- ------- -------|
D|3-------3-------3-------3------|-------------------------------|
A|-------------------------------|3-------3-------3-------3------|
E|-------------------------------|-------------------------------|
  She's   kind of girl who puts   down    friends there,  feel a
      the                     you     when    are     you
  tit tit tit tit tit tit tit tit tit tit tit tit tit tit tit tit
G|------- ------- ------- -------|------- ------- ------- -------|
D|3-------3-------3-------3------|-------------------------------|
A|-------------------------------|3-------3-------3-------3------|
E|-------------------------------|-------------------------------|
  fool
  tit tit tit tit tit tit tit tit tit tit tit tit tit tit tit tit

G|------- ------- ------- -------|------- ------- ------- -------|
D|3-------3-------3-------3------|-------------------------------|
A|-------------------------------|3-------3-------3-------3------|
E|-------------------------------|-------------------------------|
  When you say    looking good,   acts as if it's understood, she's
              she's           she
  tit tit tit tit tit tit tit tit tit tit tit tit tit tit tit tit
G|------- ------- ------- -------|------- ------- ------- -------|
D|3-------3-------3-------3------|-------------------------------|
A|-------------------------------|-------------------------------|
E|-------------------------------|4-------4-------4-------4------|
  cool,           ooh,            ooh,            ooh!
  tit tit tit tit tit tit tit tit tit tit tit tit tit tit tit tit
Refrain:
G|------ ------ ------ ------|------ ------ ------ ------|
D|---------------------------|---------------------------|
A|6-------------5------------|---------------------------|
E|---------------------------|8-------------6------------|
  Girl!


G|------ ------ ------ ------|------ ------ ------ ------|
D|---------------------------|---------------------------|
A|6-------------5------------|---------------------------|
E|---------------------------|8-------------6------------|
  Girl,         girl!                                Was
                                                       she
Verse:
G|------ ------ ------ ------|------ ------ 5----- ------|
D|--------------5------------|-----------5---------5-----|
A|3--------------------------|3--------------------------|
E|---------------------------|---------------------------|
  told when she young, pain   lead   to     plea - sure,
              was   that   would

G|------ ------ ------ ------|------ ------ ------ ------|
D|3--------------------------|--------------5------------|
A|--------------3------------|6--------------------------|
E|---------------------------|---------------------------|
  did she understand it when  said?                  That
                          they                         a

G|------ ------ ------ ------|------ ------ 5----- ------|
D|--------------5------------|-----------5---------5-----|
A|3--------------------------|3--------------------------|
E|---------------------------|---------------------------|
  man    break  back   earn   day    of     lei -  sure,
      must   his    to     his

G|------ ------ ------ ------|------ ------ ------ ------|
D|3------------------------3-|---------------------------|
A|--------------3------------|3--------------------3-----|
E|---------------------------|--------------3------------|
  will   still      it when   dead?                Ah,
      she    believe       he's
Refrain:
G|------ ------ ------ ------|------ ------ ------ ------|
D|---------------------------|---------------------------|
A|6-------------5----------5-|---------------------------|
E|---------------------------|8-------------6------8-----|
  girl!


G|------ ------ ------ ------|------ ------ ------ ------|
D|---------------------------|---------------------------|
A|6-------------5------------|---------------------------|
E|---------------------------|8-------------6------------|
  Girl,         girl!

Verse (solo):
G|------- ------- ------- -------|------- ------- ------- -------|
D|----------------5--------------|----------------5--------------|
A|3------------------------------|3------------------------------|
E|-------------------------------|-------------------------------|



G|------- ------- ------- -------|------- ------- ------- -------|
D|3------------------------------|----------------5--------------|
A|----------------3--------------|6------------------------------|
E|-------------------------------|-------------------------------|



G|------- ------- ------- -------|------- ------- ------- -------|
D|----------------5--------------|----------------5--------------|
A|3------------------------------|3------------------------------|
E|-------------------------------|-------------------------------|



G|------- ------- ------- -------|------- ------- ------- -------|
D|3------------------------------|-------------------------------|
A|----------------3--------------|3------------------------------|
E|-------------------------------|----------------3--------------|
                                                          Ah,

Refrain:
G|------ ------ ------ ------|------ ------ ------ ------|
D|---------------------------|---------------------------|
A|6------6------5------5-----|---------------------------|
E|---------------------------|8------8------6------6-----|
  girl!
fade...

Please e-mail me for any corrections.
            
Submit corrections

comments powered by Disqus
↑ Back to top | Beatles Bass for Girl. Lyrics for acoustic guitar and electric guitar. Tablatures and chords are parodies/interpretations of the original songs. You may use it for private study, scholarship, research or language learning purposes only