» » »

Beatles, Getting Better Bass tabs (ver.4)

Artists:  A B C D E F G H I J K L M N O P Q R S T U V W X Y Z # 

Getting Better Bass tabs (ver.4)

Beatles Tabs
 Rating:
4/5 (4 votes)
Getting Better lessons Tabs too difficult? Try these video lessons and learn fast
                "Song  : Getting Better
Album : Sgt. Pepper's

This is the song

Verse 1 Figure
G|-----12-12-|-------9/12|
D|*---------*|-----------|
A|*---------*|-----------|
E|-3-3-------|-3-3-------|
   	       LAST BAR
Chorus 1
G|--------------|--------------|-------------|-------------|-------------|
D|-7--10--------|-7--10--7-----|-------------|-------------|-------------|
A|--------7--10-|-----------10-|-7--8--10----|-----7--8----|-------7--10-|
E|--------------|--------------|-----------8-|-10--------7-|-8--8--------|

G|--------------|-------------|-------------|
D|-7--10--7-----|-------------|-------------|
A|-----------10-|-7--8--10----|-----7--8----|
E|--------------|-----------8-|-10--------8-|

Verse 2
G|-----12-12-|------7-10-12-12-|------12-12-|-------9-12-9-|
D|*---------*|*---------------*|*----------*|--------------|
A|*---------*|*---------------*|*----------*|--------------|
E|-3-3-------|-3-3-------------|-3-3--------|-3-3----------|
   Play x4     x2   \--3--/      x3           Last Bar

Chorus 2
G|---------5----|-5-----5------|---------------|-------------|
D|------57------|--------------|-5------5------|-3-----------|
A|-3-3----------|---------7----|----------5----|--------2----|
E|--------------|--------------|---------------|-------------|
                                              "Getting So much..."
G|-------2----|-5-----5------|--------------|---------|-----------|
D|----2-------|---------2----|-5-----5-0----|-3-2-3-2-|-3-2--33-2-|
A|-3----------|--------------|--------------|---------|-----------|
E|------------|--------------|--------------|---------|-----------|

G|-------2-5--2-|-5-----5------|---------------|-------2-5---|
D|----22--------|---------2----|-5-----5--0----|----2--------|
A|-3------------|--------------|---------------|-3-----------|
E|--------------|--------------|---------------|-------------|

G|-5-----5-------|----------------|-------------|
D|---------2---3-|-5-----5--0---2-|-3----3--2---|
A|---------------|----------------|-------------|
E|---------------|----------------|-------------|

Verse 3      Play x5
G|--------|------121212-12-|
D|*------*|*--------------*|
A|*------*|*--------------*|
E|-(3)----|-3-3------------|
  play x6        \--3-/

Chorus 3
G|-------2-5----|-5-----5------|---------------|--------------|
D|--------------|---------2----|-5-----5--0----|-3-----3------|
A|-3------------|--------------|---------------|---------2----|
E|--------------|--------------|---------------|--------------|

G|----------2-5---|-5-----5------|---------------|---------------|
D|------2---------|---------2----|-5-----5--0----|-3-----3--2----|
A|-3--------------|--------------|---------------|---------------|
E|----------------|--------------|---------------|---------------|

G|---------|---------|-------2-5---2-|-5-----55------|---------------|
D|-3-2-3-2-|-3-------|----2----------|----------2----|-5-----5--0--2-|
A|---------|-----0-2-|-3-------------|---------------|---------------|
E|---------|---3-----|---------------|---------------|---------------|

G|--------------|-------2-5---|-5-5-0-5-----|---------------|
D|-3-----3------|----2--------|---------2---|-5-----5--0----|
A|---------2----|-3-----------|-------------|---------------|
E|--------------|-------------|-------------|---------------|

G|---------------|---------|---------|
D|-3-----3-2---0-|-3-2-3-2-|-3-------|
A|---------------|---------|-----0-2-|
E|---------------|---------|---3-----|

Last Note, G, (E String 3rd Fret)
"            
Submit corrections

comments powered by Disqus
↑ Back to top | Beatles Bass for Getting Better. Lyrics for acoustic guitar and electric guitar. Tablatures and chords are parodies/interpretations of the original songs. You may use it for private study, scholarship, research or language learning purposes only