» » »

Get Back Tabs (ver.5)

Artists:  A B C D E F G H I J K L M N O P Q R S T U V W X Y Z # 

Get Back Tabs (ver.5)

Beatles
Rating:
0/5 (0 votes)

Hard to play? Try these video lessons and learn fast.
                nobody here has tabbed both solos from get back, and have only tabbed out the first one. 
so i decided to tab out both solos, im pretty sure they're a 100% correct.

1st solo
e|----------------------------12----------------------------------------------|
B|------10-10-10-10--12-12b14---14br12-10----10-------------------------------|
G|--/11-----------------------------------11----------7--5---5----------------|
D|------------------------------------------------7-9------7------------------|
A|----------------------------------------------9-----------------------------|
E|----------------------------------------------------------------------------|

e|-------------------------------12-------------------------------------------|
B|------1010--1010--1010-12-12b14--14br12-10----10----------------------------|
G|--/11--------------------------------------11----------7--5---5-------------|
D|----------------------------------------------------7-9-----7---------------|
A|--------------------------------------------------9-------------------------|
E|----------------------------------------------------------------------------|

e|--------------------------|
B|--7b8-5-------------------|
G|----------5-7b9-5---5-----|
D|--------7---------7-------|
A|--------------------------|
E|--------------------------|
2nd solo
e|--------------------------------12------------------------------------------|
B|------1010--1010--1010-12-12b14---14br12-10----10---------------------------|
G|--/11---------------------------------------11----------7--5---5------------|
D|----------------------------------------------------7-9------7--------------|
A|--------------------------------------------------9-------------------------|
E|----------------------------------------------------------------------------|

e|-------------------------|
B|--7b8-5------------------|
G|----------5-7b9-5---5-7--|
D|--------7---------7------|
A|-------------------------|
E|-------------------------|

e|-------------------------------12------------------------------------------|
B|------10-10-10-10--10-12-12b14~--14br12-10---------------------------------|
G|--/11----------------------------------------------------------------------|
D|---------------------------------------------------------------------------|
A|---------------------------------------------------------------------------|
E|---------------------------------------------------------------------------|

e|----------------------------------------------------------------------------|
B|-10-12b14~--10-12b14-10-12b14-10-12b14-10---12b13-10---10-12b13-10--10------|
G|-----------------------------------------------------11-----------11--------|
D|----------------------------------------------------------------------------|
A|----------------------------------------------------------------------------|
E|----------------------------------------------------------------------------|
            
Hard to play? Try these video lessons and learn fast. | Correct




comments powered by Disqus
↑ Back to top | Tablatures and chords are parodies/interpretations of the original songs. You may use it for private study, scholarship, research or language learning purposes only