» » »

Beatles, From Me To You Bass tabs (ver.4)

Artists:  A B C D E F G H I J K L M N O P Q R S T U V W X Y Z # 

From Me To You Bass tabs (ver.4)

Beatles Tabs
 Rating:
4/5 (4 votes)
From Me To You lessons Tabs too difficult? Try these video lessons and learn fast
                
Written by John Lennon & Paul McCartney

INTRO
  t=138
G|---------------------------------|---------------------------------|
D|-----------------5---------------|-7-------------------------------|
A|-3-------------------------------|-----------------7---------------|
E|---------------------------------|---------------------------------|

G|---------------------------------|---------------------------------|
D|-----------------5---------------|-7-------------------------------|
A|-3-------------------------------|-----------------7---------------|
E|---------------------------------|---------------------------------|

VERSE

G|---------------------------------|---------------------------------|
D|-----------------5---------------|-7-------------------------------|
A|-3-------------------------------|-----------------7---------------|
E|---------------------------------|---------------------------------|

G|---------------------------------|---------------------------------|
D|-----------------5---------------|-5-------------------------------|
A|-3-------------------------------|-----------------5---------------|
E|---------------------------------|---------------------------------|

G|---------------------------------|---------------------------------|
D|-3-------------------------------|-7-------------------------------|
A|-----------------3---------------|-----------------7---------------|
E|---------------------------------|---------------------------------|

G|---------------------------------|---------------------------------|
D|-----------------5---------------|-----------------7---------------|
A|-3-------------------------------|-3-------------------------------|
E|---------------------------------|---------------------------------|

VERSE

G|---------------------------------|---------------------------------|
D|-----------------5---------------|-7-------------------------------|
A|-3-------------------------------|-----------------7---------------|
E|---------------------------------|---------------------------------|

G|---------------------------------|---------------------------------|
D|-----------------5---------------|-5-------------------------------|
A|-3-------------------------------|-----------------5---------------|
E|---------------------------------|---------------------------------|

G|---------------------------------|---------------------------------|
D|-3-------------------------------|-7-------------------------------|
A|-----------------3---------------|-----------------7---------------|
E|---------------------------------|---------------------------------|

G|---------------------------------|---------------------------------|
D|-----------------5---------------|-----------------5---------------|
A|-3-------------------------------|-3-------------------------------|
E|---------------------------------|---------------------------------|

BRIDGE

G|---------------------------------|---------------------------------|
D|-5---------------------------5---|-----------------5---------------|
A|-----------------5---------------|-3---------------------------3---|
E|---------------------------------|---------------------------------|

G|---------------------------------|---------------------------------|
D|-3---------------------------2---|-3-------------------------------|
A|-----------------3---------------|-----------------3---------------|
E|---------------------------------|---------------------------------|

G|---------------------------------|---------------------------------|
D|-----------------7---------------|-----------------7---------------|
A|-5---------------------------4---|-5-------------------------------|
E|---------------------------------|---------------------------------|

   .   .   .   .   .   .   .   .     .   .   .   .   .   .   .
G|---------------------------------|---------------------------------|
D|-5---5---5---5---5---5---5---5---|-5---5---5---5---5---5---5-------|
A|---------------------------------|---------------------------------|
E|---------------------------------|---------------------------------|

VERSE

G|---------------------------------|---------------------------------|
D|-----------------5---------------|-7-----------7-----------7-------|
A|-3-----------------------3-------|-----------------7---------------|
E|---------------------------------|---------------------------------|

G|---------------------------------|---------------------------------|
D|-----------------5---------------|-5-----------5-----------5-------|
A|-3-----------3-----------3-------|-----------------5---------------|
E|---------------------------------|---------------------------------|

G|---------------------------------|---------------------------------|
D|-3-----------3-----------3-------|-7-----------7-----------7-------|
A|-----------------3---------------|-----------------7---------------|
E|---------------------------------|---------------------------------|

  Bass 1
G|---------------------------------|---------------------------------|
D|-----------------5-----------5---|-----------------7-------7-------|
A|-3-------------------------------|-3-----------3-------------------|
E|---------------------------------|---------------------------------|
  Bass 2
G|---------------------------------|---------------------------------|
D|---------------------------------|---------------------------------|
A|---------------------------------|-------------------------3---5---|
E|---------------------------------|---------------------------------|

HARMONICA SOLO


  Bass 1
G|---------------------------------|---------------------------------|
D|-----------------5---------------|-7-----------7-----------7-------|
A|-3-----------3-----------3-------|-----------------7---------------|
E|---------------------------------|---------------------------------|
  Bass 2
G|---------------------------------|---------------------------------|
D|---------------------------------|---------------------------------|
A|/7-------5---3--/5------/5-------|-------------------------3---5---|
E|---------------------------------|-5-------------------------------|


  Bass 1
G|---------------------------------|---------------------------------|
D|-----------------5---------------|-5-----------5-----------5-------|
A|-3-----------3-----------3-------|-----------------5---------------|
E|---------------------------------|---------------------------------|
  Bass 2
G|---------------------------------|---------------------------------|
D|----------------/7------/7-------|-5-------------------------------|
A|/7-------5---3-------------------|---------------------------------|
E|---------------------------------|---------------------------------|


  Bass 1
G|---------------------------------|---------------------------------|
D|-3-----------3-----------3-------|-7-----------7-----------7-------|
A|-----------------3---------------|-----------------7---------------|
E|---------------------------------|---------------------------------|

G|---------------------------------|---------------------------------|
D|-----------------5-----------5---|-----------------5---------------|
A|-3-----------3-------------------|-3-----------3-------------------|
E|---------------------------------|---------------------------------|

BRIDGE

G|---------------------------------|---------------------------------|
D|-5-----------5---------------5---|-----------------5---------------|
A|-----------------5---------------|-3-----------3---------------3---|
E|---------------------------------|---------------------------------|

G|---------------------------------|---------------------------------|
D|-3-----------3-------------------|-3-----------3-----------3-------|
A|-----------------3-----------3---|-----------------3---------------|
E|---------------------------------|---------------------------------|

G|---------------------------------|---------------------------------|
D|-----------------7---------------|-----------------7---------------|
A|-5-----------5---------------4---|-5-----------5-------------------|
E|---------------------------------|---------------------------------|

   .   .   .   .   .   .   .   .     .   .   .   .   .   .   .
G|---------------------------------|---------------------------------|
D|-5---5---5---5---5---5---5---5---|-5---5---5---5---5---5---5-------|
A|---------------------------------|---------------------------------|
E|---------------------------------|---------------------------------|

VERSE

G|---------------------------------|---------------------------------|
D|-----------------5---------------|-7-----------7-----------7-------|
A|-3-----------------------3-------|-----------------7---------------|
E|---------------------------------|---------------------------------|

G|---------------------------------|---------------------------------|
D|-----------------5---------------|-5-----------5-----------5-------|
A|-3-----------3-----------3-------|-----------------5---------------|
E|---------------------------------|---------------------------------|

G|---------------------------------|---------------------------------|
D|-3-----------3-----------3-------|-7-----------7-----------7-------|
A|-----------------3---------------|-----------------7---------------|
E|---------------------------------|---------------------------------|

G|---------------------------------|---------------------------------|
D|-----------------5-------5-------|-------------5-------------------|
A|-3-----------3-------------------|-3-----------------------3-------|
E|---------------------------------|---------------------------------|

G|---------------------------------|---------------------------------|
D|-7-----------------------7-------|-6-----------------------6-------|
A|-------------7-------------------|-------------7-------------------|
E|---------------------------------|---------------------------------|

G|---------------------------------|---------------------------------|
D|-----------------5---------------|-7-------------------------------|
A|-3-------------------------------|-0-------------------------------|
E|---------------------------------|---------------------------------|
            
Submit corrections

comments powered by Disqus
↑ Back to top | Beatles Bass for From Me To You. Lyrics for acoustic guitar and electric guitar. Tablatures and chords are parodies/interpretations of the original songs. You may use it for private study, scholarship, research or language learning purposes only