>
 >
Everybodys Tryin To Be My Baby

Everybodys Tryin To Be My Baby Guitar Tabs

Beatles - Everybodys Tryin To Be My Baby chords, tabs, tablatures, lyrics

Guitar lessons | Add/correct | Request | Top 50 tabs Artists:  A B C D E F G H I J K L M N O P Q R S T U V W X Y Z 0-9

Everybodys Tryin To Be My Baby Guitar Tabs – Beatles

CD, Sheet music, Poster

Do you like Everybodys Tryin To Be My Baby? Share with your friends now
Tabs
Chords:      E    022100
             E6   022120
             A    x02220
             B7   x21202




                         E           E E6 E
Well they took some honey from a tree
Dressed it up and they called it me

A
Everybody's trying to be my baby
E
Everybody's trying to be my baby
B7                    A              E
Everybody's trying to be my baby, now

     E              
Woked up last night, half past four
fifty women knocking on my door

A         
Everybody's trying to be my baby
E
Everybody's trying to be my baby
B7                    A             E  
Everybody's trying to be my baby, now


First solo


     E                 
Went out last night, I didn't stay late
'fore I got home I had nineteen dates

A
Everybody's trying to be my baby
E
Everybody's trying to be my baby
B7                    A              E
Everybody's trying to be my baby, now


Second solo


     E
Went out last night, I didn't stay late 
'fore I got home I had nineteen dates

A
Everybody's trying to be my baby
E
Everybody's trying to be my baby
B7                    A            E
Everybody's trying to be my baby now


          E           
Well they took some honey from a tree
Dressed it up and they called it me

A
Everybody's trying to be my baby
E
Everybody's trying to be my baby
B7                    A             E
Everybody's trying to be my baby now





Intro





                             |------ ------ ----0- ----0-|
                             |------------------0------2-|
                             |------------------1------1-|
                             |------------------2------2-|
                             |------------------2------2-|
                             |------------------0------0-|
                    Well they took   some    honey 
                              (.
                             |0----- ------ ----0- ----0-|
                             |0-----------------0------2-|
                             |1-----------------1------1-|
                             |2-----------------2------2-|
                             |2-----------------2------2-|
                             |0-----------------0------0-|
                                 From a  tree
e|0----- ------ ------ ------|------ ------ ------ ------|
B|0--------------------------|---------------------------|
G|1--------------------------|---------------------------|
D|2--------------------------|---------------------------|
A|2--------------------------|---------------------------|
E|0------------------------0-|0------2------3------4-----|
     Dressed it up and they called   it     me         Ev'


Chorus

  A 
e|0----- 0----- 0---0- 0-----|0----- 0----- 0---0- 0-----|
B|2------2------2---2--2-----|2------2------2---2--2-----|
G|2------2------2---2--2-----|2------2------2---2--2-----|
D|2------2------2---2--2-----|2------2------2---2--2-----|
A|0------0------0---0--0-----|0------0------0---0--0-----|
E|---------------------------|---------------------------|
    rybody's       tryin' to  be     my     baby       Ev'

  E
e|0----- 0----- 0---0- 0-----|0----- 0----- 0---0- 0-----|
B|0------0------0---0--0-----|0------0------0---0--0-----|
G|1------1------1---1--1-----|1------1------1---1--1-----|
D|2------2------2---2--2-----|2------2------2---2--2-----|
A|2------2------2---2--2-----|2------2------2---2--2-----|
E|0------0------0---0--0-----|0------0------0---0--0-----|
    rybody's       tryin' to  be     my     baby       Ev'

  B7                          A
e|2----- 2----- ---2-- 2-----|0----- 0----- 0---0- 0-----|
B|0------0---------0---0-----|2------2------2---2--2-----|
G|2------2---------2---2-----|2------2------2---2--2-----|
D|1------1---------1---1-----|2------2------2---2--2-----|
A|2------2---------2---2-----|0------0------0---0--0-----|
E|---------------------------|---------------------------|
     rybody's       tryin' to  be     my        baby  now     

  E
e|0----- 0----- ----0- 0-----|0----- ----0- ----0- 0-----|
B|0------0----------0--0-----|0----------0------0--0-----|
G|1------1----------1--1-----|1----------1------1--1-----|
D|2------2----------2--2-----|2----------2------2--2-----|
A|2------2----------2--2-----|2----------2------2--2-----|
E|0------0----------0--0-----|0----------0------0--0-----|
                                                     Woke
e|------ 0----- ------ ------|-----0 ------ ------ ------|
B|-------0-----------3-------|-----0------3------2------0|
G|--------------------------0H1-----------1------1------1|
D|---------------------------|---------------------------|
A|---------------------------|---------------------------|
E|---------------------------|---------------------------|


Verse

e|0----- ------ ----0- ----0-|0----- ------ ----0- ----0-|
B|0-----------------0------2-|0-----------------0------2-|
G|1-----------------1------1-|1-----------------1------1-|
D|2-----------------2------2-|2-----------------2------2-|
A|2-----------------2------2-|2-----------------2------2-|
E|0-----------------0------0-|0-----------------0------0-|
  up     last   night         half   past   four

e|0----- ------ ------ ------|------ ------ ------ ------|
B|0--------------------------|---------------------------|
G|1--------------------------|---------------------------|
D|2--------------------------|---------------------------|
A|2--------------------------|---------------------------|
E|0------------------------0-|0------2------3------4-----|
    fifty   women      knocking on   my     door       Ev'



Chorus
  A
e|0----- 0----- 0---0- 0-----|0----- 0---0- ----0- 0-----|
B|2------2------2---2--2-----|2------2---2------2--2-----|
G|2------2------2---2--2-----|2------2---2------2--2-----|
D|2------2------2---2--2-----|2------2---2------2--2-----|
A|0------0------0---0--0-----|0------0---0------0--0-----|
E|---------------------------|---------------------------|
    rybody's       tryin' to  be     my     baby       Ev'

  E
e|0----- 0----- ----0- 0-----|0----- 0----- 0---0- 0-----|
B|0------0----------0--0-----|0------0------0---0--0-----|
G|1------1----------1--1-----|1------1------1---1--1-----|
D|2------2----------2--2-----|2------2------2---2--2-----|
A|2------2----------2--2-----|2------2------2---2--2-----|
E|0------0----------0--0-----|0------0------0---0--0-----|
    rybody's       tryin' to  be     my     baby       Ev'

  B7                          A
e|2----- 2----- 2---2- 2-----|0----- 0----- ----0- 0-----|
B|0------0------0---0--0-----|2------2----------2--2-----|
G|2------2------2---2--2-----|2------2----------2--2-----|
D|1------1------1---1--1-----|2------2----------2--2-----|
A|2------2------2---2--2-----|0------0----------0--0-----|
E|---------------------------|---------------------------|
     rybody's       tryin' to  be     my        baby  now     

  E
e|0----- 0----- ----0- 0-----|0----- ----0- ----0- 0-----|
B|0------0----------0--0-----|0----------0------0--0-----|
G|1------1----------1--1-----|1----------1------1--1-----|
D|2------2----------2--2-----|2----------2------2--2-----|
A|2------2----------2--2-----|2----------2------2--2-----|
E|0------0----------0--0-----|0----------0------0--0-----|

e|------ 0----- ------ ------|-----0 -----0 -----0 ------|
B|-------0-----------3-------|-----0------3------0-------|
G|--------------------------0H1--------------------------|
D|---------------------------|---------------------------|
A|---------------------------|---------------------------|
E|---------------------------|---------------------------|
                                                      


 First solo
                                     
  E 
e|------ 7----- ------ ------|7----- ----7- ------ ----7-|
B|-------0-------------------|0----------0-------------0-|
G|------------------7--------|----7-------------7--------|
D|------------------6--------|----6-------------6--------|
A|---------------------------|---------------------------|
E|---------------------------|---------------------------|
 
e|------ 7----- ------ ------|7----- ----7- ------ ------|
B|-------0-------------------|0----------0---------------|
G|------------------7--------|----7-------------7--------|
D|------------------6--------|----6-------------6--------|
A|---------------------------|---------------------------|
E|---------------------------|---------------------------|
  A
e|------ 12---- ------ ------|12---- ----12 ------ ------|
B|--------0------------------|-0----------0--------------|
G|------------------12-------|------------------12-----7-|
D|------------------11-------|------------------11-------|
A|---------------------------|---------------------------|
E|---------------------------|---------------------------|
  E
e|------ 7----- ------ ------|7----- ----7- ------ ------|
B|-------0-------------------|0----------0---------------|
G|------------------7--------|---------------------------|
D|------------------6--------|---------------------------|
A|---------------------------|---------------------------|
E|---------------------------|-------------------4--5--6-|
  B7                          A7            A6     A7
e|----7- ----7- ----7- ----7-|5----- 5----- 5----- 5-----|
B|----7------7------7------7-|8------8------7------8-----|
G|----8------8------8------8-|6------6------6------6-----|
D|----7------7------7------7-|5------5------5------5-----|
A|----9------7------9------9-|7------7------7------7-----|
E|7--------------------------|5--------------------------|
  E7                                                  
e|------ 0----- ------ ------|-----0 ------ ------ ------|
B|-------0-----------3-------|------------3------2------0|
G|-------1------------------0H1-----------1------1------1|
D|---------------------------|---------------------------|
A|---------------------------|---------------------------|
E|---------------------------|---------------------------|
                                                     Went

  Verse
  E
e|0----- ------ ----0- ----0-|0----- ------ ----0- ----0-|
B|0-----------------0------2-|0-----------------0------2-|
G|1-----------------1------1-|1-----------------1------1-|
D|2-----------------2------2-|2-----------------2------2-|
A|2-----------------2------2-|2-----------------2------2-|
E|0-----------------0------0-|0-----------------0------0-|
  out    last   night     I   didn't stay   late

e|0----- ------ ------ ------|------ ------ ------ ------|
B|0--------------------------|---------------------------|
G|1--------------------------|---------------------------|
D|2--------------------------|---------------------------|
A|2--------------------------|---------------------------|
E|0------------------------0-|0------2------3------4-----|
    'fore   I   got home I had nineteen     dates      Ev'



Chorus

  A 
e|0----- 0----- 0---0- 0-----|0----- 0----- 0---0- 0-----|
B|2------2------2---2--2-----|2------2------2---2--2-----|
G|2------2------2---2--2-----|2------2------2---2--2-----|
D|2------2------2---2--2-----|2------2------2---2--2-----|
A|0------0------0---0--0-----|0------0------0---0--0-----|
E|---------------------------|---------------------------|
    rybody's       tryin' to  be     my     baby       Ev'

  E
e|0----- 0----- 0---0- 0-----|0----- 0----- 0---0- 0-----|
B|0------0------0---0--0-----|0------0------0---0--0-----|
G|1------1------1---1--1-----|1------1------1---1--1-----|
D|2------2------2---2--2-----|2------2------2---2--2-----|
A|2------2------2---2--2-----|2------2------2---2--2-----|
E|0------0------0---0--0-----|0------0------0---0--0-----|
    rybody's       tryin' to  be     my     baby       Ev'

  B7                          A
e|2----- 2----- ---2-- 2-----|0----- 0----- 0---0- 0-----|
B|0------0---------0---0-----|2------2------2---2--2-----|
G|2------2---------2---2-----|2------2------2---2--2-----|
D|1------1---------1---1-----|2------2------2---2--2-----|
A|2------2---------2---2-----|0------0------0---0--0-----|
E|---------------------------|---------------------------|
     rybody's       tryin' to  be     my        baby  now     

  E
e|0----- 0----- ----0- 0-----|0----- ----0- ----0- 0-----|
B|0------0----------0--0-----|0----------0------0--0-----|
G|1------1----------1--1-----|1----------1------1--1-----|
D|2------2----------2--2-----|2----------2------2--2-----|
A|2------2----------2--2-----|2----------2------2--2-----|
E|0------0----------0--0-----|0----------0------0--0-----|
                                                     Woke
e|------ 0----- ------ ------|-----0 -----0 -----0 ------|
B|-------0-----------3-------|-----0------3------0-------|
G|--------------------------0H1--------------------------|
D|---------------------------|---------------------------|
A|---------------------------|---------------------------|
E|---------------------------|---------------------------|



  Second solo

  E7
e|------ ------ ------ ------|------ ------ ------ ------|
B|-------8-----------8-------|8-----------8------8-------|
G|-------7-----------7-------|7-----------7------7-------|
D|-------6-----------6-------|6-----------6------6-------|
A|-------7-----------7-------|7-----------7------7-------|
E|---------------------------|---------------------------|

e|------ ------ ------ ------|------ ------ ------ ------|
B|-------8-----------8-------|8-----------8------8-------|
G|-------7-----------7-------|7-----------7------7-------|
D|-------6-----------6-------|6-----------6------6-------|
A|-------7-----------7-------|7-----------7------7-------|
E|---------------------------|---------------------------|
  A7
e|------ 5----- ------ 5-----|5----- -----5 -----5 ------|
B|-------8-------------8-----|8-----------8------8-------|
G|-------6-------------6-----|6-----------6------6-------|
D|-------5-------------5-----|5-----------5------5-------|
A|-------7-------------7-----|7-----------7------7-------|
E|-------5-------------5-----|5-----------5------5-------|
  E7
e|------ ------ ------ ------|------ ------ ------ ------|
B|-------8-----------8-------|8-----------8--------------|
G|-------7-----------7-------|7-----------7--------------|
D|-------6-----------6-------|6-----------6--------------|
A|-------7-----------7-------|7-----------7--------------|
E|---------------------------|---------------------------|
  B7                          A
e|------ 9----- -----9 ------|7--P-5 ------ -----5 ------|
B|-------7-----------7-------|5-----------8-B-9--5-------|
G|-------8-----------8-------|6-----------6--------------|
D|---------------------------|---------------------------|
A|---------------------------|---------------------------|
E|---------------------------|---------------------------|
  E7
e|------ 0----- ------ ------|-----0 -----0 ------ ------|
B|-------0-----------3-------|-----0------3--------------|
G|--------------------------0H1--------------------------|
D|---------------------------|---------------------------|
A|---------------------------|---------------------------|
E|---------------------------|---------------------------|
 
e|------ 15---- 15---- ----15|------ 15---- 15--12 ------|
B|-------15-----15---------15|-------15-----15-----15----|
G|-------13-----13---------13|-------13-----13-----------|
D|-------14-----14---------14|-------14-----14-----------|
A|---------------------------|---------------------------|
E|---------------------------|---------------------------|

e|------ 15---- ----15 ------|15---- 15---- 15--12 ------|
B|-------15---------15-------|15-----15-----15-----15----|
G|-------13---------13-------|13-----13-----13-----------|
D|-------14---------14-------|14-----14-----14-----------|
A|---------------------------|---------------------------|
E|---------------------------|---------------------------|
  A7                 
e|------ 12---- ----12 ------|12---- ----12 ----12 ------|
B|-------12----------12------|12---------12-----12-------|
G|-------12-----------12-----|12---------12-----12-------|
D|-------11------------11----|11---------11-----11-------|
A|-------12-------------12---|12---------12-----12-------|
E|---------------------------|---------------------------|
  E7
e|------ 0----- ------ ------|-----0 ------ ------ ------|
B|-------0-----------3-------|------------3--------------|
G|--------------------------0H1--------------------------|
D|---------------------------|---------------------------|
A|---------------------------|----------------------0--1-|
E|---------------------------|-------------------4-------|
  B7
e|-----2 ------ -----2 ------|-----3 -----2 -----2 -----0|
B|-----0------0------0------0|-----0------0------0------0|
G|-----2------2-------------2|------------2------2-------|
D|---------------------------|---------------------------|
A|2--------------------------|---------------------------|
E|---------------------------|---------------------------|
  E7
e|------ 0----- ------ ------|-----0 ------ ------ ------|
B|-------0-----------3-------|------------3------2------0|
G|-------1------------------0H1-----------1------1------1|
D|---------------------------|---------------------------|
A|---------------------------|---------------------------|
E|---------------------------|---------------------------|
                                                     Went

Verse

  E
e|0----- ------ ----0- ----0-|0----- ------ ----0- ----0-|
B|0-----------------0------2-|0-----------------0------2-|
G|1-----------------1------1-|1-----------------1------1-|
D|2-----------------2------2-|2-----------------2------2-|
A|2-----------------2------2-|2-----------------2------2-|
E|0-----------------0------0-|0-----------------0------0-|
  out    last   night     I   didn't stay   late

e|0----- ------ ------ ------|------ ------ ------ ------|
B|0--------------------------|---------------------------|
G|1--------------------------|---------------------------|
D|2--------------------------|---------------------------|
A|2--------------------------|---------------------------|
E|0------------------------0-|0------2------3------4-----|
    'fore   I   got home I had nineteen     dates      Ev'



Chorus

  A 
e|0----- 0----- 0---0- 0-----|0----- 0----- 0---0- 0-----|
B|2------2------2---2--2-----|2------2------2---2--2-----|
G|2------2------2---2--2-----|2------2------2---2--2-----|
D|2------2------2---2--2-----|2------2------2---2--2-----|
A|0------0------0---0--0-----|0------0------0---0--0-----|
E|---------------------------|---------------------------|
    rybody's       tryin' to  be     my     baby       Ev'

  E
e|0----- 0----- 0---0- 0-----|0----- 0----- 0---0- 0-----|
B|0------0------0---0--0-----|0------0------0---0--0-----|
G|1------1------1---1--1-----|1------1------1---1--1-----|
D|2------2------2---2--2-----|2------2------2---2--2-----|
A|2------2------2---2--2-----|2------2------2---2--2-----|
E|0------0------0---0--0-----|0------0------0---0--0-----|
    rybody's       tryin' to  be     my     baby       Ev'

  B7                          A
e|2----- 2----- ---2-- 2-----|0----- 0----- 0---0- 0-----|
B|0------0---------0---0-----|2------2------2---2--2-----|
G|2------2---------2---2-----|2------2------2---2--2-----|
D|1------1---------1---1-----|2------2------2---2--2-----|
A|2------2---------2---2-----|0------0------0---0--0-----|
E|---------------------------|---------------------------|
     rybody's       tryin' to  be     my        baby  now     

  E
e|0----- 0----- ----0- 0-----|0----- ----0- ----0- 0-----|
B|0------0----------0--0-----|0----------0------0--0-----|
G|1------1----------1--1-----|1----------1------1--1-----|
D|2------2----------2--2-----|2----------2------2--2-----|
A|2------2----------2--2-----|2----------2------2--2-----|
E|0------0----------0--0-----|0----------0------0--0-----|
                                                     
                                                Verse                     

e|------ 0----- ------ ------|-----0 ------ ------ ------|
B|-------0-----------3-------|------------3------2------0|
G|-------1------------------0H1-----------1------1------1|
D|---------------------------|---------------------------|
A|---------------------------|---------------------------|
E|---------------------------|---------------------------|
                                               Well  they      
  E
e|0----- ------ ----0- ----0-|0----- ------ ----0- ----0-|
B|0-----------------0------2-|0-----------------0------2-|
G|1-----------------1------1-|1-----------------1------1-|
D|2-----------------2------2-|2-----------------2------2-|
A|2-----------------2------2-|2-----------------2------2-|
E|0-----------------0------0-|0-----------------0------0-|
  took   some   honey           from    a   tree 
                                      
e|0----- ------ ------ ------|------ ------ ------ ------|
B|0--------------------------|---------------------------|
G|1--------------------------|---------------------------|
D|2--------------------------|---------------------------|
A|2--------------------------|---------------------------|
E|0------------------------0-|0------2------3------4-----|
    dressed it  up and they called    it    me         Ev'


Chorus

  A 
e|0----- 0----- 0---0- 0-----|0----- 0----- 0---0- 0-----|
B|2------2------2---2--2-----|2------2------2---2--2-----|
G|2------2------2---2--2-----|2------2------2---2--2-----|
D|2------2------2---2--2-----|2------2------2---2--2-----|
A|0------0------0---0--0-----|0------0------0---0--0-----|
E|---------------------------|---------------------------|
    rybody's       tryin' to  be     my     baby       Ev'

  E
e|0----- 0----- 0---0- 0-----|0----- 0----- 0---0- 0-----|
B|0------0------0---0--0-----|0------0------0---0--0-----|
G|1------1------1---1--1-----|1------1------1---1--1-----|
D|2------2------2---2--2-----|2------2------2---2--2-----|
A|2------2------2---2--2-----|2------2------2---2--2-----|
E|0------0------0---0--0-----|0------0------0---0--0-----|
    rybody's       tryin' to  be     my     baby       Ev'

  B7                          A
e|2----- 2----- ---2-- 2-----|0----- 0----- 0---0- 0-----|
B|0------0---------0---0-----|2------2------2---2--2-----|
G|2------2---------2---2-----|2------2------2---2--2-----|
D|1------1---------1---1-----|2------2------2---2--2-----|
A|2------2---------2---2-----|0------0------0---0--0-----|
E|---------------------------|---------------------------|
     rybody's       tryin' to  be     my        baby  now   

 Ending
  
e|------ ------ ------ ------|------ ------ ------ o-----|
B|---------------------------|---------------------0-----|
G|-------7------6------6-----|5------4-------------1-----|
D|-------9------8------8-----|7------6-------------2-----|
A|---7-----------------------|----------7----------2-----|
E|---------------------------|---------------------0-----|

                                                   (.
e|------ ------ ------ ------|------ ------ ------ 7-----|
B|------------------------3--|---------------------7-----|
G|-------0------0--2-/-4----4\2---0----------------7-----|
D|--2------------------------|-------2----2--------6-----|
A|---------------------------|---------------------7-----|
E|---------------------------|---------------------------|







          B  Bend
          R  Release
          /  slide up
          \  slide down
          H  hammer-on
          P pull-off
          ~  vibrato
          +  harmonic
          x  Mute note
          . - play note like a dot in standard notation
          ^ - ties two notes together





Comments


Popular Beatles tabs & chords
All You Need Is Love Bass Tabs
And Your Bird Can Sing 2 Bass Tabs
All My Loving 4 Chords
Blackbird Chords
And Your Bird Can Sing 4 Tabs
Anna Tabs
Doctor Robert Tabs
From Me To You Tabs
Hide Your Love Away Tabs
I'm So Tired Tabs


Song lyrics



↑ Back to top | Tablatures and chords are parodies/interpretations of the original songs. You may use it for private study, scholarship, research or language learning purposes only
© 2014 AZChords.com Contact us | Privacy policy | DMCA | Add/correct tabs | Request tabs | Top 50 tabs