» » »

Beatles, Everybody's Trying To Be My Baby Bass tabs (ver.1)

Artists:  A B C D E F G H I J K L M N O P Q R S T U V W X Y Z # 

Everybody's Trying To Be My Baby Bass tabs (ver.1)

Beatles Tabs
 Rating:
4/5 (4 votes)
Everybody's Trying To Be My Baby lessons Tabs too difficult? Try these video lessons and learn fast
1
                Everybody's Trying To Be My Baby
The Beatles
Written by Carl Perkins; released on "Beatles For Sale"

Again, an excellent rock and roll! And a great bassline by Paul! :-)

Verse:
G|------ ------ ------ ------|------ ------ ------ ------|
D|---------------------------|---------------------------|
A|---------------------------|---------------------------|
E|---------------------------|---------------------------|
                                                Well   they


G|------ ------ ------ ------|-----------------------------------------|
D|---------------------------|-----------------------------------------|
A|------------------7--------|7-------------------------------7--------|
E|---------------------------|-----------------------------------------|
  took   some   honey                       from a     tree


G|----------------------------------|------ ------ ------ ------|
D|----------------------------------|-------4------5------6-----|
A|7-------------------------------7-|7--------------------------|
E|----------------------------------|---------------------------|
            dressed it up and they          it     me
                                  called

G|------ ------ ------ ------|------ ------ ------ ------|
D|7------7-------------------|7------7-------------7-----|
A|--------------7------7-----|--------------7------------|
E|---------------------------|---------------------------|
  Every- body's     trying to be     my     ba- by,    eve-


G|------ ------ ------ ------|------ ------ ------ ------|
D|---------------------------|---------------------------|
A|7------7-------------6-----|7------7------7------4-----|
E|--------------7------------|---------------------------|
      ry-body's     trying to be     my     ba- by     Eve-


G|------ ------ ------ ------|------ ------ ------ ------|
D|---------------------------|---------------------------|
A|--------------9------------|-------4------5------6---6-|
E|7------7-------------7-----|5--------------------------|
      ry-body's     trying to be  my            ba-by  now


G|------ ------ ------ ------|------ ------ ------ ------|
D|-------6------7------8-----|9------7------6------------|
A|7--------------------------|---------------------9-----|
E|---------------------------|---------------------------|
                                                       Woke

Verse:
G|------ ------ ------ ------|------ ------ ------ ------|
D|---------------------------|---------------------------|
A|7--------------------------|7--------------------------|
E|---------------------------|---------------------------|
  up     last   night,        half   past   four


G|------ ------ ------ ------|------ ------ ------ ------|
D|---------------------------|-------4------5------6-----|
A|7------------------------7-|7--------------------------|
E|---------------------------|---------------------------|
      fif  - ty women knocking on    my     door


G|------ ------ ------ ------|------ ------ ------ ------|
D|7------7-----------------5-|7------7-------------------|
A|--------------7------7-----|--------------4------5-----|
E|---------------------------|---------------------------|
  Every- body's     trying to be     my     ba- by,    eve-


G|------ ------ ------ ------|------ ------ ------ ------|
D|---------------------------|---------------------------|
A|7------7-------------------|7------7------9---7--------|
E|--------------7------7-----|---------------------9-----|
      ry-body's     trying to be     my     ba- by     Eve-


G|------ ------ ------ ------|------ ------ ------ ------|
D|---------------------7-----|---------------------------|
A|---------------------------|-------4------5------6-----|
E|7------7------7------------|5--------------------------|
      ry-body's     trying to be  my            ba-by  now


G|------ ------ ------ ------|------ ------ ------ ------|
D|-------6------7------8-----|---------------------------|
A|7--------------------------|-------4------5------6-----|
E|---------------------------|7--------------------------|


Break (solo):
G|------ ------ ------ ------|------ ------ ------ ------|
D|---------------------------|---------------------------|
A|7------7------5------5-----|4------4-------------------|
E|---------------------------|--------------7------7-----|



G|------ ------ ------ ------|------ ------ ------ ------|
D|---------------------------|7------6------4------4-----|
A|7------5------4------------|---------------------------|
E|---------------------7-----|---------------------------|



G|------ ------ ------ ------|------ ------ ------ ------|
D|---------------------------|---------------------------|
A|-------4------5------6---6-|7---7--5------4------------|
E|5--------------------------|---------------------7-----|



G|------ ------ ------ ------|------ ------ ------ ------|
D|-------6------7------8-----|9---9--7------6------------|
A|7--------------------------|---------------------9-----|
E|---------------------------|---------------------------|



G|------ ------ ------ ------|------ ------ ------ ------|
D|---------------------------|---------------------------|
A|-------6------9------6-----|-------4------5------6-----|
E|7--------------------------|5--------------------------|



G|------ ------ ------ ------|------ ------ ------ ------|
D|-------6------7------8-----|9---9--7------6------------|
A|7--------------------------|---------------------9-----|
E|---------------------------|---------------------------|
                                                       When

Verse:
G|------ ------ ------ ------|------ ------ ------ ------|
D|---------------------------|---------------------------|
A|7--------------------------|7--------------------------|
E|---------------------------|---------------------------|
  out    last   night,     I  didn't stay   late


G|------ ------ ------ ------|------ ------ ------ ------|
D|---------------------------|-------4------5------6-----|
A|7------------------------7-|7--------------------------|
E|---------------------------|---------------------------|
      for   at home I had a- nine - teen   dates


G|------ ------ ------ ------|------ ------ ------ ------|
D|7------7-------------------|7------7-------------9-----|
A|--------------7------7-----|--------------7------------|
E|---------------------------|---------------------------|
  Every- body's     trying to be     my     ba- by,    eve-


G|------ ------ ------ ------|------ ------ ------ ------|
D|---------------------------|---------------------------|
A|7------7-------------------|7------7------6------4-----|
E|--------------7------7-----|---------------------------|
      ry-body's     trying to be     my     ba- by     Eve-


G|------ ------ ------ ------|------ ------ ------ ------|
D|---------------------------|---------------------------|
A|--------------9------------|-------4------5------6-----|
E|7--------------------------|5--------------------------|
      ry-body's     trying to be  my            ba-by  now


G|------ ------ ------ ------|------ 6----- 7----- 8-----|
D|-------6------7------8-----|9--------------------------|
A|7--------------------------|---------------------------|
E|---------------------------|---------------------------|


Break (solo):
G|9----- 9-\-7- ------ ------|------ ------ ------ ------|
D|--------------9------7-\-5-|---------------------------|
A|---------------------------|7------5------4------------|
E|---------------------------|---------------------7-----|



G|------ ------ ------ ------|------ ------ ------ ------|
D|---------------------------|5-/-7--7-------------7-----|
A|7------5------4------------|--------------7------------|
E|---------------------7-----|---------------------------|



G|------ ------ ------ ------|------ ------ ------ ------|
D|---------------------------|---------------------------|
A|-------4------5------6-----|7------5------4------------|
E|5--------------------------|---------------------7-----|



G|------ ------ ------ ------|------ ------ ------ ------|
D|-------6-------------------|---------------------------|
A|7--------------------------|7------5------4------------|
E|--------------7------9-----|---------------------7-----|



G|------ ------ ------ ------|------ ------ ------ ------|
D|---------------------------|---------------------------|
A|-------6------9------6-----|-------4------5------6-----|
E|7--------------------------|5--------------------------|



G|------ ------ ------ ------|------ ------ ------ ------|
D|-------6------7------8-----|9------9------9------9-----|
A|7--------------------------|---------------------------|
E|---------------------------|---------------------------|



G|------ ------ ------ ------|------ ------ ------ ------|
D|---------------------------|---------------------------|
A|7------7------5------5-----|4------4-------------------|
E|---------------------------|--------------7------7-----|



G|------ ------ ------ ------|------ ------ 4----- ------|
D|---------------------------|---------------------7-----|
A|7------7------5------5-----|4------4-------------------|
E|---------------------------|---------------------------|



G|------ ------ ------ ------|------ ------ ------ ------|
D|---------------------------|---------------------------|
A|-------4------5------6-----|7------7------5------4-----|
E|5--------------------------|---------------------------|



G|------ ------ ------ ------|------ ------ ------ ------|
D|--------------9------9-----|---------------------------|
A|7------7-------------------|7------7------5------4-----|
E|---------------------------|---------------------------|



G|------ ------ ------ ------|------ ------ ------ ------|
D|---------------------------|---------------------------|
A|-------6------9------6-----|-------4------5------6-----|
E|7--------------------------|5--------------------------|



G|------ ------ ------ ------|4----- ------ ------ ------|
D|-------6------7------8-----|---------------------------|
A|7--------------------------|-------4------5------6-----|
E|---------------------------|---------------------------|
                                                       When

Verse:
G|------ ------ ------ ------|------ ------ ------ ------|
D|---------------------------|---------------------------|
A|7--------------------------|---------------------------|
E|---------------------------|---------------------------|
  out    last   night,     I  didn't stay   late


G|------ ------ ------ ------|------ ------ ------ ------|
D|---------------------------|-------4------5------6-----|
A|-------------------------7-|7--------------------------|
E|---------------------------|---------------------------|
      for    at home I had a- nine - teen   dates


G|------ ------ ------ ------|------ ------ ------ ------|
D|7------7-------------------|7------7-------------7-----|
A|--------------7------7-----|--------------7------------|
E|---------------------------|---------------------------|
  Every- body's     trying to be     my     ba- by,    eve-


G|------ ------ ------ ------|------ ------ ------ ------|
D|---------------------------|---------------------------|
A|7------7-------------5-----|7------7-------------7-----|
E|--------------7------------|--------------7------------|
      ry-body's     trying to be     my     ba- by     Eve-


G|------ ------ ------ ------|------ ------ ------ ------|
D|---------------------------|---------------------------|
A|--------------9------------|--------------7------------|
E|7------7-------------7-----|5------5-------------5-----|
      ry-body's     trying to be  my            ba-by  now


G|------ ------ ------ ------|------ ------ ------ ------|
D|-------6------7------8-----|9------7------6------------|
A|7--------------------------|---------------------9-----|
E|---------------------------|---------------------------|
                                                Well   they

Verse:
G|------ ------ ------ ------|------ ------ ------ ------|
D|---------------------------|---------------------------|
A|7--------------------------|7--------------------------|
E|---------------------------|---------------------------|
  took   some   honey             from a tree


G|------ ------ ------ ------|------ ------ ------ ------|
D|---------------------------|-------4------5------6-----|
A|7------------------------7-|7--------------------------|
E|---------------------------|---------------------------|
      dressed it up and they         it     me
                           called

G|------ ------ ------ ------|------ ------ ------ ------|
D|7------7-------------------|7------7-------------7-----|
A|---------------------------|--------------7------------|
E|--------------0------3-----|---------------------------|
  Every- body's     trying to be     my     ba- by,    eve-


G|------ ------ ------ ------|------ ------ ------ ------|
D|---------------------------|---------------------------|
A|7------7-------------5-----|7------7-------------5-----|
E|--------------7------------|--------------7------------|
      ry-body's     trying to be     my     ba- by     Eve-


G|------ ------ ------ ------|------ ------ ------ ------|
D|---------------------------|7------7-------------7-----|
A|--------------9------------|--------------7------------|
E|7------7-------------7-----|---------------------------|
      ry-body's     trying to be  my            ba-by  now


G|------ ------ ------ ------|------ ------ ------ ------|
D|----6---------7------7-----|9---7----------------------|
A|7--------------------------|-------10--7---------7-----|
E|---------------------------|---------------------------|



G|------ ------ ------ ------|------ ------ ------ ------|
D|---------------------------|---------------------------|
A|---------------------------|-------7-------------7-----|
E|---------------------------|-----------0---------------|

Please e-mail me for any corrections
            
Submit corrections

comments powered by Disqus
↑ Back to top | Beatles Bass for Everybody's Trying To Be My Baby. Lyrics for acoustic guitar and electric guitar. 1 Tablatures and chords are parodies/interpretations of the original songs. You may use it for private study, scholarship, research or language learning purposes only