» » »

Beatles, Everybodys Got Something To Hide Except Me And My Monkey Bass tabs (ver.2)

Artists:  A B C D E F G H I J K L M N O P Q R S T U V W X Y Z # 

Everybodys Got Something To Hide Except Me And My Monkey Bass tabs (ver.2)

Beatles Tabs
 Rating:
4/5 (4 votes)
Everybodys Got Something To Hide Except Me And My Monkey lessons Tabs too difficult? Try these video lessons and learn fast
                       ------------------------------------------------------------

             THE BEATLES - EVERYBODY'S GOT SOMETHING TO HIDE 
                          EXCEPT ME AND MY MONKEY
                               John Lennon
           From THE WHITE ALBUM, released on November 22nd 1968

       ------------------------------------------------------------




     INTRO


  G|---------------------------------|---------------------------------|
  D|---------------------------------|---------------------------------|
  A|---------------------------------|---------------------------------|
  E|---------------------------------|---------------------------------|





  G|---------------------------------|---------------------------------|
  D|---------------------------------|---------------------------------|
  A|---------------------------------|---------------------------------|
  E|---------------------------------|---------------------------------|





     VERSE


  G|---------------------------------|---------------------------------|
  D|---------------------------------|---------------------------------|
  A|-7-------------------4---5---6---|-7-------------------4---5---6---|
  E|-----0---4---5---7---------------|-----0---4---5---7---------------|





  G|---------------------------------|---------------------------------|
  D|---------------------------------|---------------------------------|
  A|-7-------------------4---5---6---|-7-------------------4---5---6---|
  E|-----0---4---5---7---------------|-----0---4---5---7---------------|





  G|---------------------------------|---------------------------------|
  D|---------------------------------|---------------------------------|
  A|-7-------------------4---5---6---|-7-------------------4---5---6---|
  E|-----0---4---5---7---------------|-----0-4---0-5---7---------------|





  G|---------------------------------|---------------------------------|
  D|---------------------------------|---------------------------------|
  A|-0---0---0---0---0---0---0---0---|-0---0---0---0---0---0---0---0---|
  E|---------------------------------|---------------------------------|





  G|---------------------------------|---------------------------------|
  D|---------------------------------|---------------------------------|
  A|/5-------5---5---5---5---5---5---|/5---5---5---5---5---5---5---5---|
  E|---------------------------------|---------------------------------|





  G|---------------------------------|---------------------------------|
  D|---------------------------------|---------------------9-9-7-x-----|
  A|---------------------------------|-----------------------------9---|
  E|-7---7---7---7---7---7---7---7---|-7---7---7---7---7---------------|





  G|-------------------------|---------------------------------|
  D|-------------------------|---------------------------------|
  A|-7-----------5-----------|---------------------------------|
  E|-------------------------|-3-------------------------------|





  G|-------------------------|---------------------------------|
  D|-------------------------|---------------------------------|
  A|-7-----------------------|-5-------------------------------|
  E|-------------3-----------|---------------------------------|





     VERSE


  G|---------------------------------|---------------------------------|
  D|---------------------------------|---------------------------------|
  A|-7-------------------4---5---6---|-7-------------------4---5---6---|
  E|-----0---4---5---7---------------|-----0-4---4-5---7---------------|





  G|---------------------------------|---------------------------------|
  D|---------------------------------|---------------------------------|
  A|-7-------------------4---5---6---|-7-------------------4---5---6---|
  E|-----0---4---5---7---------------|-----0-4-----5---7---------------|





  G|---------------------------------|---------------------------------|
  D|---------------------------------|---------------------------------|
  A|-7-------------------4---5---6---|-7-------------------4---5---6---|
  E|-----0---4---5---7---------------|-----0---4---5---7---------------|





  G|---------------------------------|---------------------------------|
  D|---------------------------------|---------------------------------|
  A|-7-------------------4---5---6---|-7-------------------4---5---6---|
  E|-----0---4---5---7---------------|-----0-4---4-5---7---------------|





  G|---------------------------------|---------------------------------|
  D|---------------------------------|---------------------------------|
  A|-7-------------------4---5---6---|-7---------------x---4---5---5-6-|
  E|-----0---4---5---7---------------|-----0-4---4-5-------------------|





  G|---------------------------------|---------------------------------|
  D|---------------------------------|-------------------7-7-5---5-----|
  A|-7---0---0---0---0---0---0---0---|-0---0---0---0---0-----------7---|
  E|---------------------------------|---------------------------------|





  G|---------------------------------|---------------------------------|
  D|---------------------------------|---------------------------------|
  A|-5---5---5---5---5---5---5---5---|/5---0---5---0---5---5---5---0---|
  E|---------------------------------|---------------------------------|





  G|---------------------------------|---------------------------------|
  D|---------------------------------|---------------------------9-9---|
  A|---------------------------------|---------------------------------|
  E|-7---7---7---7---7---7---7---7---|-7---0---7---7---7---7-----------|





  G|-------------------------|---------------------------------|
  D|-------------------------|---------------------------------|
  A|-7-----------5-----------|---------------------------------|
  E|-------------------------|-3-------------------------------|





  G|-------------------------|---------------------------------|
  D|-------------------------|---------------------------------|
  A|-7-----------------------|-5-------------------------------|
  E|-------------3-----------|---------------------------------|





     VERSE


  G|---------------------------------|---------------------------------|
  D|---------------------------------|---------------------------------|
  A|-7-------------------4---5---6---|-7-------------------4---5---6---|
  E|-----0---4---5---7---------------|-----0-4---4-5---7---------------|





  G|---------------------------------|---------------------------------|
  D|---------------------------------|---------------------------------|
  A|-7-------------------4---5---6---|-7-------------------4---5---6---|
  E|-----0---4---5---7---------------|-----0-4---4-5-------------------|





  G|---------------------------------|---------------------------------|
  D|---------------------------------|---------------------------------|
  A|-7-------------------------------|-7-------------------4---5---6---|
  E|-----0---4---5-------7-------7---|-----0---4---5---7---------------|





  G|---------------------------------|---------------------------------|
  D|---------------------------------|---------------------------------|
  A|-7-------------------------------|-7-------------------4---5---5---|
  E|-----0---4---5-------7-------7---|-----0-4---4-5---7---------------|





  G|---------------------------------|---------------------------------|
  D|---------------------------------|---------------------------------|
  A|-7-------------------------------|-7-------------------4---5---5B7-|
  E|-----0---4---5-------7-------7---|-----0-4---4-5---7---------------|





  G|---------------------------------|---------------------------------|
  D|---------------------------------|---------------------------------|
  A|-0---0---0---0---0---0---0---0---|-0---0---0---0---0---0---0---0---|
  E|---------------------------------|---------------------------------|





  G|---------------------------------|---------------------------------|
  D|---------------------------------|---------------------------------|
  A|-5---5---5---5---5---5---5---5---|/5---0---5---0---5-5-5---5-5-0---|
  E|---------------------------------|---------------------------------|





  G|---------------------------------|---------------------------------|
  D|---------------------------------|-----------------------9-7---7---|
  A|---------------------------------|-------------------------------9-|
  E|-7---7---7---7---7---7---7---7---|-7---7---7---7---7---7-----------|





  G|-------------------------|---------------------------------|
  D|-------------------------|---------------------------------|
  A|-7-----------5-----------|---------------------------------|
  E|-------------------------|-3-------------------------------|





  G|-------------------------|---------------------------------|
  D|-------------------------|---------------------------------|
  A|-7-----------------------|-5-------------------------------|
  E|-------------3-----------|---------------------------------|





  G|---------------------------------|---------------------------------|
  D|---------------------------------|---------------------------------|
  A|-7-\-----------------------------|---------------------------------|
  E|---------------------------------|-------------------------------7-|





  G|---------------------------------|---------------------------------|
  D|---------------------------------|---------------------------------|
  A|-7---7---------------------------|4H5--5---5---5---4H5-5-5---5-5---|
  E|---------0-0-0-4---4-5---6---7---|---------------------------------|





  G|---------------------------------|---------------------------------|
  D|---------------------------------|---------------------------------|
  A|4H5--5---5---5---4H5-5-5---5-5---|4H5--5---5---5---4H5-5-5---5-5---|
  E|---------------------------------|---------------------------------|





     OUTRO


  G|---------------------------------|---------------------------------|
  D|---------------------------------|---------------------------------|
  A|-7-------------------4---5---6---|-7-------------------4---5---6---|
  E|-----0---4---5---7---------------|-----0---4---5---7---------------|





  G|---------------------------------|---------------------------------|
  D|---------------------------------|---------------------------------|
  A|-7-------------------4---5---6---|---------------------4---5---6---|
  E|-----0---4---5---7---------------|-0-----------5---7---------------|





  G|---------------------------------|---------------------------------|
  D|---------------------------------|---------------------------------|
  A|-7-------------------4---5---6---|-7-------------------4---5---6---|
  E|-----0---4---5---7---------------|-----0-4---0-5---7---------------| .....
            
Submit corrections

comments powered by Disqus
↑ Back to top | Beatles Bass for Everybodys Got Something To Hide Except Me And My Monkey. Lyrics for acoustic guitar and electric guitar. Tablatures and chords are parodies/interpretations of the original songs. You may use it for private study, scholarship, research or language learning purposes only