>
 >
Everybodys Got Something To Hide Except Me And My Monkey 1

Everybodys Got Something To Hide Except Me And My Monkey 1 Guitar Tabs

Beatles - Everybodys Got Something To Hide Except Me And My Monkey 1 chords, tabs, tablatures, lyrics

Guitar lessons | Add/correct | Request | Top 50 tabs Artists:  A B C D E F G H I J K L M N O P Q R S T U V W X Y Z 0-9

Everybodys Got Something To Hide Except Me And My Monkey 1 Guitar Tabs – Beatles

CD, Sheet music, Poster

Do you like Everybodys Got Something To Hide Except Me And My Monkey 1? Share with your friends now
Bass TabsBass Tabs v2ChordsTabsTabs v2Tabs v3
    ----------------------------------------------------------
 
    THE BEATLES - EVERYBODY'S GOT SOMETHING TO HIDE EXCEPT ME 
                  AND MY MONKEY (Lennon & McCartney) From the
                  WHITE ALBUM. Released on November 22nd 1968.
   
    ----------------------------------------------------------







    Come on come on come on come on
    Come on is such a joy
    Come on is such a joy
    Come on is is take it easy
    Come on take it easy
    Take it easy take it easy
    Everybodys got something to hide except for me and
    My monkey.

    The deeper you go the higher you fly
    The higher you fly the deeper you go
    So come on come on
    Come on is such a joy
    Come on is such a joy
    Come on make it easy
    Come on make it easy.

    Take it easy take it easy
    Everybodys got something to hide except for me and
    My monkey.

    Your inside is out and your outside is in
    Your outside is in and your inside is out
    So come on come on
    Come on is such a joy
    Come on is such a joy
    Come on make it easy
    Come on make it easy
    Make it easy make it easy
    Everybodys got something to hide except for me and my monkey
   





        E       A                       E       A                   
  e|----4-- ----5-- ----9-- -------|----4-- ----5-- ----9-- -------|
  B|----5-------5------10----------|----5-------5------10----------|
  G|----4-------6-------9----------|----4-------6-------9----------|
  D|-------------------------------|-------------------------------|
  A|-------------------------------|-------------------------------|
  E|-------------------------------|-------------------------------|





  e|----4-- ----5-- ----9-- -------|----4-- ----5-- ----9-- -------|
  B|----5-------5------10----------|----5-------5------10----------|
  G|----4-------6-------9----------|----4-------6-------9----------|
  D|-------------------------------|-------------------------------|
  A|-------------------------------|-------------------------------|
  E|-------------------------------|-------------------------------|



    00:08

  e|----4-- ----5-- ------- -------|----4-- ----5-- ------- -------|
  B|----5-------5------------------|----5-------5------------------|
  G|----4-------6------------------|----4-------6------------------|
  D|-------------------------------|-------------------------------|
  A|-------------------------------|-------------------------------|
  E|-------------------------------|-------------------------------|

  e|------- ------- ------- -------|------- ------- ------- -------|
  B|-------------------------------|-------------------------------|
  G|-------------------------------|-------------------------------|
  D|-------------------------------|-------------------------------|
  A|----7-------7-7----7-7-/9\--5--|----7-7---7---x/7---5----------|
  E|0-------0----------------------|0-----------------------5---7--|
    Come    come                    Come    come
        on      on                      on      on



  e|----4-- ----5-- ----5-- -------|----4-- ----5-- ----5-- -------|
  B|----5-------5-------5----------|----5-------5-------5----------|
  G|----4-------6-------6----------|----4-------6-------6----------|
  D|-------------------------------|-------------------------------|
  A|-------------------------------|-------------------------------|
  E|-------------------------------|-------------------------------|

  e|------- ------- ------- -------|------- ------- ------- -------|
  B|-------------------------------|-------------------------------|
  G|-------------------------------|-------------------------------|
  D|-------------------------------|-------------------------------|
  A|----7-7---7---7-7-5-7--/10--5--|----7-7---7--7-/9---454\2--/5--|
  E|0------------------------------|0--------------------HP--------|
    Come    is  such                Come    is  such 
        on       a joy                  on       a joy

   

  e|----4-- ----5-- ----5-- -------|----4-- ----5-- ----5-- -------|
  B|----5-------5-------5----------|----5-------5-------5----------|
  G|----4-------6-------6----------|----4-------6-------6----------|
  D|-------------------------------|-------------------------------|
  A|-------------------------------|-------------------------------|
  E|-------------------------------|-------------------------------|

  e|------- ------- ------- -------|------- ------- ------- -------|
  B|-------------------------------|-------------------------------|
  G|-------------------------------|-------------------------------|
  D|-------------------------------|-------------------------------|
  A|----7-7---7----/9---5---7---7--|----7-7---7--5-/9---5---7---7-7|
  E|0------------------------------|0------------------------------|
    Come    is  take                Come    is  take            take
        on       it easy                on       it easy          it


    00:20
    A5      A6 ....
  e|------- ------- ------- -------|------- ------- ------- -------|
  B|-------------------------------|-------------------------------|
  G|-------------------------------|-------------------------------|
  D|-------------------------------|-------------------------------|
  A|7---7---9-------7---7---9---7--|7---7---9---7---7---7---9---7--|
  E|5---5---5-------5---5---5---5--|5---5---5---5---5---5---5---5--|

  e|------- ------- ------- -------|------- ------- ------- -------|
  B|-------------------------------|-------------------------------|
  G|-------------------------------|-------------------------------|
  D|-------------------------------|-------------------------------|
  A|7---7---7---x---7---7---7---7--|7---7---7---7---7---7---7---7-/|
  E|5---5---5---x---5---5---5---5--|5---5---5---5---5---5---5---5-/|
    easy                                                        take
                                                                  it


    D5      D6 ....
  e|------- ------- ------- -------|------- ------- ------- -------|
  B|-------------------------------|-------------------------------|
  G|-------------------------------|-------------------------------|
  D|7---7---9-------7---7---9---7--|7---7---9---7---7---7---9------|
  A|5---5---5-------5---5---5---5--|5---5---5---5---5---5---5------|
  E|-------------------------------|-------------------------------|

  e|------- ------- ------- -------|------- ------- ------- -------|
  B|-------------------------------|-------------------------------|
  G|-------------------------------|-------------------------------|
  D|-------------------------------|-------------------------------|
  A|12--12--12--12--12--12--12--12-|12--12--12--12--12--12--12--12-|
  E|10--10--10--10--10--10--10--10-|10--10--10--10--10--10--10--10-|
    easy                                                    Everybody's



    B5      B6 ....
  e|------- ------- ------- -------|------- ------- ------- -------|
  B|-------------------------------|-------------------------------|
  G|-------------------------------|-------------------------------|
  D|-------------------------------|-------------------------------|
  A|9---9--11---9---9---9--11---9--|9---9--11---9---9---9--11------|
  E|7---7---7---7---7---7---7---7--|7---7---7---7---7---7---7------|

  e|------- ------- ------- -------|------- ------- ------- -------|
  B|-------------------------------|-------------------------------|
  G|-------------------------------|-------------------------------|
  D|-------------------------------|-------------------------------|
  A\9---9---9---9---9---9---9---9--|9---9---9---9---9---9---9---9--|
  E\7---7---7---7---7---7---7---7--|7---7---7---7---7---7---7---7--|
            got     something   hide    except  for me  and my
                            to



    00:32                           x   x       x   x
    A           D           G           
  e|------- ------- -------|7------ ------- ------- -------|  
  B|5-----------7----------|8------------------------------|
  G|6-----------7----------|7------------------------------|
  D|7-----------7----------|-------------------------------|
  A|-----------------------|-------------------------------|
  E|-----------------------|-------------------------------|


  e|------- ------B -----R-|------- ------- ------- -------|
  B|--R---------1517---1715|-------------------------------|
  GB1412----12-------------|12-~---------------------------|
  D|----14-----------------|-------------------------------|
  A|-----------------------|-------------------------------|
  E|-----------------------|-------------------------------|
    monkey


                                    x   x       x   x
    E6           Em7        D6
  e|------- ----12- -------|14----- ------- ------- -------|
  B|14----------12---------|12-----------------------------|
  G|13----------12---------|14-----------------------------|
  D|14----------12---------|12-----------------------------|
  A|-----------------------|-------------------------------|
  E|-----------------------|-------------------------------|

  e|------- ---1517 ---1715|------- ------- ------- -------|
  BB17R15--------B-------R-|-------------------------------|
  G|--------16-------------|14-~---------------------------|
  D|-----------------------|-------------------------------|
  A|-----------------------|-------------------------------|
  E|-----------------------|-------------------------------|
                                                          The


    00:39

  e|4---4-- ------- ----5-- 5------|4---4-- ------- ----5-- 5------|
  B|5---5---------------5---5------|5---5---------------5---5------|
  G|4---4---------------6---6------|4---4---------------6---6------|
  D|-------------------------------|-------------------------------|
  A|-------------------------------|-------------------------------|
  E|-------------------------------|-------------------------------|

  e|------- ------- ------- -------|------- ------- ------- -------|
  B|-------------------------------|-------------------------------|
  G|-------------------------------|-------------------------------|
  D|-------------------------------|---------------/7---5----------|
  A|--7---7---7---7-/9--5---7------|--7---0---7-7-----------5---7--|
  E|0-------0-------------------0--|0-------0----------------------|
    deeper  you go              the higher  you fly             The




  e|4---4-- ------- ----5-- 5------|4---4-- ------- ----5-- 5------|
  B|5---5---------------5---5------|5---5---------------5---5------|
  G|4---4---------------6---6------|4---4---------------6---6------|
  D|-------------------------------|-------------------------------|
  A|-------------------------------|-------------------------------|
  E|-------------------------------|-------------------------------|

  e|------- ------- ------- -------|------- ------- ------- -------|
  B|-------------------------------|-------------------------------|
  G|-------------------------------|---------------------HP--------|
  D|-------------------------------|---------------/9---575-----5--|
  A|----7-7---7---7-/9--5---7------|------------------------7------|
  E|0-------0-------------------0--|0---0---0---0------------------|
    higher  you fly             the deeper  you go,     so  come
                                                                on



  e|4---4-- ----5-- ----5-- -------|4---4-- ----5-- ----5-- -------|
  B|5---5-------5-------5----------|5---5-------5-------5----------|
  G|4---4-------6-------6----------|4---4-------6-------6----------|
  D|-------------------------------|-------------------------------|
  A|-------------------------------|-------------------------------|
  E|-------------------------------|-------------------------------|

  e|------- ------- ------- -------|------- ------- ------- -------|
  B|-------------------------------|-------------------------------|
  G|-------------------------------|-------------------------------|
  D|-------------------------------|-------------------------------|
  A|----------------------------5--|----7-7---7---7-/9--5---7---7--|
  E|0---0---0---0---0---0----------|0------------------------------|
                            come 
                                on



  e|4---4-- ----5-- ----5-- -------|4---4-- ----5-- ----5-- -------|
  B|5---5-------5-------5----------|5---5-------5-------5----------|
  G|4---4-------6-------6----------|4---4-------6-------6----------|
  D|-------------------------------|-------------------------------|
  A|-------------------------------|-------------------------------|
  E|-------------------------------|-------------------------------|

  e|------- ------- ------- -------|------- ------- ------- -------|
  B|-------------------------------|-------------------------------|
  G|-------------------------------|-------------------------------|
  D|-------------------------------|---------------/7---5----------|
  A|----7-7---7---7-/9--5---7------|----7-7---5-7-5---------5---7--|
  E|0---------------------------0--|0------------------------------|
    Come    is  such                Come    is  such 
        on       a joy                  on       a joy


    E           A       D ....
  e|4---4-- ----5-- ----5-- -------|4---4-- ----5-- ----5-- -------|
  B|5---5-------5-------7----------|5---5-------5-------7----------|
  G|4---4-------6-------7----------|4---4-------6-------7----------|
  D|-------------------------------|-------------------------------|
  A|-------------------------------|-------------------------------|
  E|-------------------------------|-------------------------------|

  e|------- ------- ------- -------|------- ------- ------- -------|
  B|-------------------------------|-------------------------------|
  G|-------------------------------|-------------------------------|
  D|-------------------------------|-------------------------------|
  A|----7-7---7-7-7---------5---7--|----7-7---7-7-7---------5---7--|
  E|0---------------5---7----------|0---------------5---7----------|
    Come    is  make                Come    is  make            take
        on       it easy                on       it easy          it  


    01:00
    
  e|------- ------- ------- -------|------- ------- ------- -------|
  B|2-------2-------2-------2------|2-------2-------2-------2------|
  G|2-------2-------2-------2------|2-------2-------2---2---2------|
  D|2---2---4-------2---2---4---2--|2---2---4---2---2---2---2---2--|
  A|0---0---0-------0---0---0---0--|0---0---0---0---0---0---0---0--|
  E|-------------------------------|-------------------------------|

  e|------- ------- ------- -------|------- ------- ------- -------|
  B|-------------------------------|-------------------------------|
  G|-------------------------------|-------------------------------|
  D|-------------------------------|-------------------------------|
  A|7---7---7---7---7---7---7---7--|7---7---7---7---7---7---7---7--|
  E|5---5---5---7---5---5---5---5--|5---5---5---5---5---5---5------|
    easy                                                        take
                                                                  it


    
  e|------- 2------ ------- 2------|------- ------- ------- 2------|
  B|3---3---3-------3---3---3------|--------3-------3---3---3------|
  G|2---2---4-------2---2---4---2--|2---2---4---2---2---2---4------|
  D|0---0---2-------0---0---0---0--|0---0---0---0---0---0---0------|
  A|-------------------------------|-------------------------------|
  E|-------------------------------|-------------------------------|

  e|------- ------- ------- -------|------- ------- ------- -------|
  B|-------------------------------|-------------------------------|
  G|-------------------------------|-------------------------------|
  D|-------------------------------|-------------------------------|
  A|12--12--12--12--12--12--12--12-|12--12--12--12--12--12--12--12\|
  E|10--10--10--10--10--10--10--10-|10--10--10--10--10--10--10--10\|
    easy                                                    Everybody's




  e|------- ------- ------- -------|------- ------- ------- -------|
  B|----------------------------4--|4-------4-------4---4---4------|
  G|4---4---4---4---4---4---4---4--|4---4---4---4---4---4---4------|
  D|4---4---6---4---4---4---6---4--|4---4---6---4---4---4---6------|
  A|2---2---2---2---2---2---2---2--|2---2---2---2---2---2---2------|
  E|-------------------------------|-------------------------------|

  e|------- ------- ------- -------|------- ------- ------- -------|
  B|-------------------------------|-------------------------------|
  G|-------------------------------|-------------------------------|
  D|-------------------------------|-------------------------------|
  A\9---9---9---9---9---9---9---9--|9---9---9---9---9---9----------|
  E\7---7---7---7---7---7---7---7--|7---7---7---7---7---7----------|
            got     something   hide    except  for me  and my
                            to


    01:12                           x   x       x   x

  e|------- ------- -------|7------ ------- ------- -------|  
  B|5-----------7----------|8------------------------------|
  G|6-----------7----------|7------------------------------|
  D|7-----------7----------|-------------------------------|
  A|-----------------------|-------------------------------|
  E|-----------------------|-------------------------------|


  e|------- ------B -----R-|------- ------- ------- -------|
  B|--R---------1517---1715|-------------------------------|
  GB1412----12-------------|12-~---------------------------|
  D|----14-----------------|-------------------------------|
  A|-----------------------|-------------------------------|
  E|-----------------------|-------------------------------|
    monkey


                                    x   x       x   x

  e|------- ------- -------|14----- ------- ------- -------|
  B|14----------12---------|12-----------------------------|
  G|13----------12---------|14-----------------------------|
  D|14----------12---------|12-----------------------------|
  A|-----------------------|-------------------------------|
  E|-----------------------|-------------------------------|

  e|------- ---1517 ---1715|------- ------- ------- -------|
  BB17R15--------B-------R-|-------------------------------|
  G|--------16-------------|14-~---------------------------|
  D|-----------------------|-------------------------------|
  A|-----------------------|-------------------------------|
  E|-----------------------|-------------------------------|
                                                        Your


    01:19

  e|4---4-- ------- ----5-- 5------|4---4-- ------- ----5-- 5------|
  B|5---5---------------5---5------|5---5---------------5---5------|
  G|4---4---------------6---6------|4---4---------------6---6------|
  D|-------------------------------|-------------------------------|
  A|-------------------------------|-------------------------------|
  E|-------------------------------|-------------------------------|

  e|------- ------- ------- -------|------- ------- ------- -------|
  B|-------------------------------|-------------------------------|
  G|-------------------------------|-------------------------------|
  D|-------------------------------|-------------------------------|
  A|----7-7--------/9---5---7---7--|----7-7---7-7--/9---5---7------|
  E|0---------0---0----------------|0---------------------------0--|
    inside  is  out         and     outside is  in              your
                                your



  e|4---4-- ------- ----5-- 5------|4---4-- ------- ----5-- 5------|
  B|5---5---------------5---5------|5---5---------------5---5------|
  G|4---4---------------6---6------|4---4---------------6---6------|
  D|-------------------------------|-------------------------------|
  A|-------------------------------|-------------------------------|
  E|-------------------------------|-------------------------------|

  e|------- ------- ------- -------|------- ------- ------- -------|
  B|-------------------------------|-------------------------------|
  G|-------------------------------|-------------------------------|
  D|-------------------------------|---------------/7---5----------|
  A|----7-7---7-7--/9---5---7------|----7---x-7--x----------5---7--|
  E|0---------------------------0--|0------------------------------|
    outside is  in          and     inside  is  out,    so  come   
                                your                            on



  e|----4-- ----5-- ----5-- -------|----4-- ----5-- ----5-- -------|
  B|----5-------5-------5----------|----5-------5-------5----------|
  G|----4-------6-------6----------|----4-------6-------6----------|
  D|-------------------------------|-------------------------------|
  A|-------------------------------|-------------------------------|
  E|-------------------------------|-------------------------------|

  e|------- ------- ------- -------|------- ------- ------- -------|
  B|-------------------------------|-------------------------------|
  G|-------------------------------|-------------------------------|
  D|----------------5H7-5H7--------|---------------/7---5----------|
  A|------------------------5---7--|----7-7---7-------------5---7--|
  E|0---0---0---0------------------|0------------------------------|
                            come
                                on

    01:31

  e|4---4-- ----5-- ----5-- -------|4---4-- ----5-- ----5-- -------|
  B|5---5-------5-------7----------|5---5-------5-------7----------|
  G|4---4-------6-------7----------|4---4-------6-------7----------|
  D|-------------------------------|-------------------------------|
  A|-------------------------------|-------------------------------|
  E|-------------------------------|-------------------------------|

  e|------- ------- ------- -------|------- ------- ------- -------|
  B|-------------------------------|-------------------------------|
  G|-------------------------------|-------------------------------|
  D|-------------------------------|-----------------HP------------|
  A|----7-7---7-7---5-----------7--|----7-7---7-7---575---------7--|
  E|0-------------------7--/10-----|0-------------------7--/10-----|
    Come    is  such                Come    is  such 
        on       a joy                  on       a joy




  e|4---4-- ----5-- ----5-- -------|4---4-- ----5-- ----5-- -------|
  B|5---5-------5-------7----------|5---5-------5-------7----------|
  G|4---4-------6-------7----------|4---4-------6-------7----------|
  D|-------------------------------|-------------------------------|
  A|-------------------------------|-------------------------------|
  E|-------------------------------|-------------------------------|

  e|------- ------- ------- -------|------- ------- ------- -------|
  B|-------------------------------|-------------------------------|
  G|-------------------------------|-------------------------------|
  D|-----------------HP------------|-------------------------------|
  A|----7-7---7---7-575---------7--|----7-7---7-7--/9---7---5---7--|
  E|0-------------------7--/10-----|0------------------------------|
    Come    is  make                Come    is  make            take
        on       it easy                on       it easy          it 
 


    01:39

  e|------- ------- ------- -------|------- ------- ------- -------|   
  B|----------------2--------------|-------------------------------|
  G|----------------2--------------|-------------------------------|
  D|2---2---4---2---2---2---4---2--|2---2---4---2---2---2---2------|
  A|0---0---0---0---0---0---0---0--|0---0---0---0---0---0---0------|
  E|-------------------------------|-------------------------------|

  e|------- ------- ------- -------|------- ------- ------- -------|
  B|-------------------------------|-------------------------------|
  G|-------------------------------|-------------------------------|
  D|----------------7--------------|----7---------------7---7------|
  A|7---7---7---7---7---7---7---7--|7---7---7---7---7---7---7---7--|
  E|5---5---5---7-------5---5---5--|5-------5---5---5-----------5--|
    easy                                                        Take  
                                                                  it



  e|------- ------- ------- -------|2------ ------- ------- -------|
  B|3---3---3-------3---3---3---3--|3---3---3---3---3---3---3------|
  G|2---2---4-------2---2---4---2--|2---2---4---2---2---2---4------|
  D|0---0---2-------0---0---0---0--|0---0---0---0---0---0---0------|
  A|-------------------------------|-------------------------------|
  E|-------------------------------|-------------------------------|

  e|------- ------- ------- -------|------- ------- ------- -------|
  B|-------------------------------|-------------------------------|
  G|-------------------------------|-------------------------------|
  D|-------------------------------|-------------------------------|
  A|12--12--12--12--12--12--12--12-|12--12--12--12--12--12--12--\--|
  E|10--10--10--10--10--10--10--10-|10--10--10--10--10--10--10--\--|
    easy                                                    Everybody's



  e|------- ------- ------- -------|------- ------- ------- 5------|
  B|--------------------4-------4--|------------4------------------|
  G|4---4---4-------4---4---4---4--|4---4---4---4---4---4----------|
  D|4---4---6-------4---4---6---4--|4---4---6---4---4---4----------|
  A|2---2---2-------2---2---2---2--|2---2---2---2---2---2----------|
  E|-------------------------------|-------------------------------|

  e|------- ------- ------- -------|------- ------- ------- -------|
  B|-------------------------------|-------------------------------|
  G|-------------------------------|-------------------------------|
  D|-------------------------------|-------------------------------|
  A\9---9---9---9---9---9---9---9--|9---9---9---9---9---9----------|
  E\7---7---7---7---7---7---7---7--|7---7---7---7---7---7----------|
            got     something   hide    except  for me and  my 
                            to



    01:52                           x   x       x   x
    A           D           Em7
  e|------- ------- -------|12----- ------- ------- -------|  
  B|5-----------7----------|12-----------------------------|
  G|6-----------7----------|12-----------------------------|
  D|7-----------7----------|12-----------------------------|
  A|-----------------------|-------------------------------|
  E|-----------------------|-------------------------------|


  e|------- ------B -----R-|------- ------- ------- -------|
  B|--R---------1517---1715|-------------------------------|
  GB1412----12-------------|12-~---------------------------|
  D|----14-----------------|-------------------------------|
  A|-----------------------|-------------------------------|
  E|-----------------------|-------------------------------|
    monkey                                          Hey!


                                    x   x       x   x
    Bm7         Em7         D6
  e|12----- ----12- -------|14----- ------- ------- -------|
  B|14----------12---------|12-----------------------------|
  G|13----------12---------|14-----------------------------|
  D|14----------12---------|12-----------------------------|
  A|-----------------------|-------------------------------|
  E|-----------------------|-------------------------------|

  e|------- ---1517 ---1715|------- ------- ------- -------|
  BB17R15--------B-------R-|-------------------------------|
  G|--------16-------------|14-~---------------------------|
  D|-----------------------|-------------------------------|
  A|-----------------------|-------------------------------|
  E|-----------------------|-------------------------------|  
                                 Come on  come on  come on  
                                    come on  come on come on

    01:59

  e|------- ------- ------- -------|------- ------- ------- -------|
  B|9------------------------------|-------------------------------|
  G|9------------------------------|-------------------------------|
  D|9------------------------------|-------------------------------|
  A|7------------------------------|-------------------------------|
  E|-------------------------------|-------------------------------|
    come on  come on  come on  
       come on  come on  come on ....    



  e|------- ------- ------- -------|
  B|-------------------------------|
  G|-------------------------------|
  D|-------------------------------|
  A|-------------------------------|
  E|-------------------------------|



    02:05
    D             Db  D ....
  e|------- ------- ------- -------|------- ------- ------- -------|
  B|7---7-7---7---6-6/7-7-7---7---6|6/7-7-7---7---6-6/7-7-7---7---6|
  G|7---7-7---7---6-6/7-7-7---7---6|6/7-7-7---7---6-6/7-7-7---7---6|
  D|7---7-7---7---6-6/7-7-7---7---6|6/7-7-7---7---6-6/7-7-7---7---6|
  A|5---5-5---5---4-4/5-5-5---5---4|5/7-5-5---5---4-4/5-5-5---5---4|
  E|5---5-5---5---4-4/5-5-5---5---4|5/7-5-5---5---4-4/5-5-5---5---4|





  e|------- ------- ------- -------|
  B|6/7-7-7---7-7---6/7-7-7---7-7--|
  G|6/7-7-7---7-7---6/7-7-7---7-7--|
  D|6/7-7-7---7-7---6/7-7-7---7-7--|
  A|4/5-5-5---5-5---4/5-5-5---5-5--|
  E|4/5-5-5---5-5---4/5-5-5---5-5--|



    02:11

  e|----4-- ----5-- ------- -------|----4-- ----5-- ------- -------|
  B|----5-------5------------------|----5-------5------------------|
  G|----4-------6------------------|----4-------6------------------|
  D|-------------------------------|-------------------------------|
  A|-------------------------------|-------------------------------|
  E|-------------------------------|-------------------------------|


  e|------- ------- ------- -------|------- ------- ------- -------|
  B|-------------------------------|-------------------------------|
  G|-------------------------------|-------------------------------|
  D|-------------------------------|---------------/7---5----------|
  A|-------------7----7---7-/9\-5--|------7---7---7---------5---7--|
  E|0-0-0-0---0--------------------|0-0-0--------------------------|
    Come on  come on  come on  
       come on  come on  come on .... 



  e|----4-- ----5-- ----5-- -------|----4-- ----5-- ----5-- -------|
  B|----5-------5-------7----------|----5-------5-------7----------|
  G|----4-------6-------7----------|----4-------6-------7----------|
  D|-------------------------------|-------------------------------|
  A|-------------------------------|-------------------------------|
  E|-------------------------------|-------------------------------|

  e|------- ------- ------- -------|------- ------- ------- -------|
  B|-------------------------------|-------------------------------|
  G|-------------------------------|-------------------------------|
  D|-----------------PH------------|-----------------HP--HP--------|
  A|------7---7---5-757-7/9-----5--|------7---7---7-797-575\2--/5--|
  E|0---0--------------------------|0---0--------------------------|
    .......................... Fade out ...........................




  e|----4-- ----5-- ----5-- -------|----4-- ----5-- ----5-- -------|
  B|----5-------5-------5----------|----5-------5-------5----------|
  G|----4-------6-------6----------|----4-------6-------6----------|
  D|-------------------------------|-------------------------------|
  A|-------------------------------|-------------------------------|
  E|-------------------------------|-------------------------------|

  e|------- ------- ------- -------|------- ------- ------- -------|
  B|-------------------------------|-------------------------------|
  G|-------------------------------|-------------------------------|
  D|-------------------------------|-------------------------------|
  A|------7---7---5-/9--5---7------|--7---7---7---5-/9--5---7------|
  E|0---0-----------------------0--|0------------------------------|
    ...............................................................









        B  Bend
        R  Release
        /  Slide up
        \  Slide down
        H  Hammer-on
        P  Pull-off
        ~  Vibrato
        +  Harmonic
        x  Mute note
        .  Play note like a dot in standard notation
        ^  Ties two notes together
        (. Pause





Comments


Popular Beatles tabs & chords
Cry For A Shadow Bass Tabs
Daytripper Bass Tabs
Babys In Black 4 Chords
Get Back 1 Chords
She Said Chords
Anna Tabs
Dear Prudence 1 Tabs
Every Little Thing Tabs
Get Back 6 Tabs
I Am The Walrus 1 Tabs


Song lyrics



↑ Back to top | Tablatures and chords are parodies/interpretations of the original songs. You may use it for private study, scholarship, research or language learning purposes only
© 2014 AZChords.com Contact us | Privacy policy | DMCA | Add/correct tabs | Request tabs | Top 50 tabs