» » »

Beatles, Everybodys Got Something To Hide Except Me And My Monkey Tabs (ver.1)

Artists:  A B C D E F G H I J K L M N O P Q R S T U V W X Y Z # 

Everybodys Got Something To Hide Except Me And My Monkey Tabs (ver.1)

Beatles Tabs
Rating:
0/5 (0 votes)
Everybodys Got Something To Hide Except Me And My Monkey lessons Tabs too difficult? Try these video lessons and learn fast
                -------------------------------------------------------------------------------
The Beatles-Everybody's Got Something to Hide Except For Me and My Monkey
-------------------------------------------------------------------------------

Intro:
e|--4----5---9--------|
B|--5----5--10--------|
G|--4----4---9--------| 4x
D|--------------------|
A|--------------------|
E|--------------------|

Verse 1
e|---------------------------------------------------------------------------|
B|---------------------------------------------------------------------------|
G|---------------------------------------------------------------------------|
D|---------------------------/5---------------------/7-5--------------------|
A|-5h7-7-7-7-7-7-7-7-7-7-7-7----7--5h7-7-7-7-7-7-7-7------5-7----------------|
E|---------------------------------------------------------------------------|

e|---------------------------------------------------------------------------|
B|---------------------------------------------------------------------------|
G|---------------------------------------------------------------------------|
D|---------------------------/5---------------------/5----------------------|
A|-5h7-7-7-7-7-7-7-7-7-7-7-7----7--5h7-7-7-7-7-7-7-7----7---5----------------|
E|--------------------------------------------------------7------------------|

e|---------------------------------------------------------------------------|
B|---------------------------------------------------------------------------|
G|---------------------------------------------------------------------------|
D|--------------------/5------------------------/5--------------------------|
A|--5h7-7-7-7-7-7-7-7----5-7---5h7-7-7-7-7-7-7-7----5-7----------------------|
E|---------------------------------------------------------------------------|

Chorus
e|---------------------------------------------------------------------------|
B|---------------------------------------------------------------------------|
G|---------------------------------------------------------------------------|
D|----------------------------------7-7-9-7-7-7-9-7-7-7-9-7------------------|
A|--7-7-9-7-7-7-9-7-7-7-9-7-7-7-9-7-5-5-5-5-5-5-5-5-5-5-5-5------------------|
E|--5-5-5-5-5-5-5-5-5-5-5-5-5-5-5-5------------------------------------------|

e|-------------------------------------------------10b12-12r10---------------|
B|------------------------------------10b12r10---8-------------8-------------|
G|---------------------------------------------9-----------------------------|
D|--4-4-6-4-4-4-6-4-4-4-6-4-4-4-6-4------------------------------------------|
A|--2-2-2-2-2-2-2-2-2-2-2-2-2-2-2-2------------------------------------------|
E|---------------------------------------------------------------------------|

e|--------------15b17-17r15--------------------------------------------------|
B|--15b17r15-----------------------------------------------------------------|
G|-----------16-------------14-----------------------------------------------|
D|---------------------------------------------------------------------------|
A|---------------------------------------------------------------------------|
E|---------------------------------------------------------------------------|

Verse 2
e|---------------------------------------------------------------------------|
B|---------------------------------------------------------------------------|
G|---------------------------------------------------------------------------|
D|--------------------5-----------------------7-5----------------------------|
A|--5h7-7-7-7-7-7-7-7---5-7-5h7-7-7-7-7-7-7-7-----5-7-5h7-7-7-7-7-7-7-7------|
E|---------------------------------------------------------------------------|

e|---------------------------------------------------------------------------|
B|---------------------------------------------------------------------------|
G|---------------------------------------------------------------------------|
D|-5-------------------------------------------------------------------------|
A|---5-7-5h7-7-7-7-7-7-7-7-9-7---5-5h7-7-7-7-7-7-7-7-7-7-7-7-7-7-7-7-5-------|
E|-----------------------------7---------------------------------------------|

e|---------------------------------------------------------------------------|
B|---------------------------------------------------------------------------|
G|---------------------------------------------------------------------------|
D|---------------------------------------------------/5----------------------|
A|-5h7-7-7-7-7-7-7-7-9-5-7-7-------5h7-7-7-7-7-7-7-7----5-7------------------|
E|---------------------------------------------------------------------------|

e|---------------------------------------------------------------------------|
B|---------------------------------------------------------------------------|
G|---------------------------------------------------------------------------|
D|---------------------7-5---------------------------------------------------|
A|---5h7-7-7-7-7-7-7-7-----5-7---5h7-7-7-7-7-7-7-7------5-7------------------|
E|--------------------------------------------------5-7----------------------|

e|---------------------------------------------------------------------------|
B|---------------------------------------------------------------------------|
G|---------------------------------------------------------------------------|
D|---------------------------------------------------------------------------|
A|--5h7-7-7-7-7-7-7-7------5-7-----------------------------------------------|
E|---------------------5-7---------------------------------------------------|

Chorus
e|---------------------------------------------------------------------------|
B|---------------------------------------------------------------------------|
G|---------------------------------------------------------------------------|
D|----------------------------------7-7-9-7-7-7-9-7-7-7-9-7------------------|
A|--7-7-9-7-7-7-9-7-7-7-9-7-7-7-9-7-5-5-5-5-5-5-5-5-5-5-5-5------------------|
E|--5-5-5-5-5-5-5-5-5-5-5-5-5-5-5-5------------------------------------------|

e|-------------------------------------------------10b12-12r10---------------|
B|------------------------------------10b12r10---8-------------8-------------|
G|---------------------------------------------9-----------------------------|
D|--4-4-6-4-4-4-6-4-4-4-6-4-4-4-6-4------------------------------------------|
A|--2-2-2-2-2-2-2-2-2-2-2-2-2-2-2-2------------------------------------------|
E|---------------------------------------------------------------------------|

e|--------------15b17-17r15--------------------------------------------------|
B|--15b17r15-----------------------------------------------------------------|
G|-----------16-------------14-----------------------------------------------|
D|---------------------------------------------------------------------------|
A|---------------------------------------------------------------------------|
E|---------------------------------------------------------------------------|

Verse 3
e|---------------------------------------------------------------------------|
B|---------------------------------------------------------------------------|
G|---------------------------------------------------------------------------|
D|--------------------/5-----------------------/5----------------------------|
A|--5h7-7-7-7-7-7-7-7----5-7-5h7-7-7-7-7-7-7-7----5-7------------------------|
E|---------------------------------------------------------------------------|

e|---------------------------------------------------------------------------|
B|---------------------------------------------------------------------------|
G|---------------------------------------------------------------------------|
D|---------------------/5-----------------------/7-5------------------------|
A|---5h7-7-7-7-7-7-7-7-----5-7-5h7-7-7-7-7-7-7-7------5-7--------------------|
E|---------------------------------------------------------------------------|

e|---------------------------------------------------------------------------|
B|---------------------------------------------------------------------------|
G|---------------------------------------------------------------------------|
D|----------------------/7/7-----------------------7-5----------------------|
A|--5h7-7-7-7-7-7-7-7-7-------5-7-5h7-7-7-7-7-7-7-7-----5-7------------------|
E|---------------------------------------------------------------------------|

e|---------------------------------------------------------------------------|
B|---------------------------------------------------------------------------|
G|---------------------------------------------------------------------------|4x
D|---------------------------------------------------------------------------|
A|---5h7-7-7-7-7-7-7-7-9---5-7-----------------------------------------------|
E|-----------------------7---------------------------------------------------|

Chorus
e|---------------------------------------------------------------------------|
B|---------------------------------------------------------------------------|
G|---------------------------------------------------------------------------|
D|----------------------------------7-7-9-7-7-7-9-7-7-7-9-7------------------|
A|--7-7-9-7-7-7-9-7-7-7-9-7-7-7-9-7-5-5-5-5-5-5-5-5-5-5-5-5------------------|
E|--5-5-5-5-5-5-5-5-5-5-5-5-5-5-5-5------------------------------------------|

e|-------------------------------------------------10b12-12r10---------------|
B|------------------------------------10b12r10---8-------------8-------------|
G|---------------------------------------------9-----------------------------|
D|--4-4-6-4-4-4-6-4-4-4-6-4-4-4-6-4------------------------------------------|
A|--2-2-2-2-2-2-2-2-2-2-2-2-2-2-2-2------------------------------------------|
E|---------------------------------------------------------------------------|

e|--------------15b17-17r15--------------------------------------------------|
B|--15b17r15-----------------------------------------------------------------|
G|-----------16-------------14-----------------------------------------------|
D|---------------------------------------------------------------------------|
A|---------------------------------------------------------------------------|
E|---------------------------------------------------------------------------|

Outro riff
e|--------------------------------------------|
B|-6/7-7-7-7----------------------------------|
G|-6/7-7-7-7----------------------------------|
D|-6/7-7-7-7----------------------------------|
A|--------------------------------------------|
E|--------------------------------------------|
            
Submit corrections

comments powered by Disqus
↑ Back to top | Beatles Tabs for Everybodys Got Something To Hide Except Me And My Monkey. Lyrics for acoustic guitar and electric guitar. Tablatures and chords are parodies/interpretations of the original songs. You may use it for private study, scholarship, research or language learning purposes only