» » »

Eleanor Rigby Tabs (ver.7)

Artists:  A B C D E F G H I J K L M N O P Q R S T U V W X Y Z # 

Eleanor Rigby Tabs (ver.7)

Beatles
Rating:
0/5 (0 votes)

Hard to play? Try these video lessons and learn fast.
                ----------------------------------------------------------------------------
                        Eleanor Rigby - The Beatles
----------------------------------------------------------------------------


Tuning: Standard





Intro/Chorus 

      C    
E||------------------------------|--------------------------|
B||---8--------------------------|--------------------------|
G||---9------9------9------9-----|--9-----9-----9-----9-----|
D||--10-----10-----10-----10-----|--9-----9-----9-----9-----|
A||------------------------------|--------------------------|
E||------------------------------|--------------------------|

  Em
------------------------7--|-----7-----7-----7-----7--|
--------------------10-----|--8-----7-----8-----------|
--9-----9-----9------9-----|--9-----9-----9-----9-----|
--9-----9-----9------9-----|--9-----9-----9-----9-----|
---------------------------|--------------------------|
---------------------------|--------------------------|

   C 
------------------------------|------------------------------|
---8--------------------------|------------------------------|
---9------9------9------9-----|---9------9------9------9-----|
--10-----10-----10-----10-----|--10-----10-----10-----10-----|
------------------------------|------------------------------|
------------------------------|------------------------------|

  Em 
------------------------7--|-----7-----7-----7-----7--|
--------------------10-----|--8-----7-----8-----------|
--9-----9-----9------9-----|--9-----9-----9-----9-----|
--9-----9-----9------9-----|--9-----9-----9-----9-----|
---------------------------|--------------------------|
---------------------------|--------------------------|


Verse   
  
  Em
--------------------------|--------------------------|
--------------------------|--------------------------|
--9-----9-----9-----9-----|--9-----9-----9-----9-----|
--9-----9-----9-----9-----|--9-----9-----9-----9-----|
--------------------------|--------------------------|
--------------------------|--------------------------|

                              C
--------------------------|------------------------------|
--------------------------|------------------------------|
--9-----9-----9-----9-----|---9------9------9------9-----|
--9-----9-----9-----9-----|--10-----10-----10-----10-----|
--------------------------|------------------------------|
--------------------------|------------------------------|

                Em  
----------------------------|-----7-----7-----7-----7--|
----------------------------|--8--8--8--8--8--8--8--8--|
---9------9-----9-----9-----|--9-----9-----9-----9-----|
--10-----10-----9-----9-----|--------------------------|
----------------------------|--------------------------|
----------------------------|--------------------------|

   
-----7-----7-----7-----7--|-----7-----7-----7-----7--|
--8--8--8--8--8--8--8--8--|--8--8--8--8--8--8--8--8--|
--9-----9-----9-----9-----|--9-----9-----9-----9-----|
--------------------------|--------------------------|
--------------------------|--------------------------|
--------------------------|--------------------------|

  C                                      Em
--8--8--8--8--8--8--8--8--|--8--8--8--8--7--7--7--7--|
--------------------------|-----------------8-----8--|
--9--9--9--9--9--9--9--9--|--9--9--9--9--9-----9-----|
--------------------------|--------------------------|
--------------------------|--------------------------|
--------------------------|--------------------------|


Chorus   

  Em7                        Em6
--7-----7-----7-----7-----|--7-----7-----7-----7-----|
--8-----8-----8-----8-----|--8-----8-----8-----8-----|
--------------------------|--------------------------|
--------------------------|--------------------------|
--------------------------|--------------------------|
--------------------------|--------------------------|

  Cmaj7/E                    Em
--7-----7-----7-----7-----|--7-----7-----7-----7-----|
--8-----8-----8-----8-----|--8-----8-----8-----8-----|
--------------------------|--------------------------|
--------------------------|--------------------------|
--------------------------|--------------------------|
--------------------------|--------------------------|

  Em7                        Em6
--7-----7-----7-----7-----|--7-----7-----7-----7-----|
--8-----8-----8-----8-----|--8-----8-----8-----8-----|
--------------------------|--------------------------|
--------------------------|--------------------------|
--------------------------|--------------------------|
--------------------------|--------------------------|

  Cmaj7/E                    Em 
--7-----7-----7-----7------|--15--7--12--7------7------7--|
--8-----8-----8-----8--12--|------8------8--12--8--10--8--|
---------------------------|------------------------------|
---------------------------|------------------------------|
---------------------------|------------------------------|
---------------------------|------------------------------|


Verse  
--------------------------|--------------------------|
--------------------------|--------------------------|
--9-----9-----9-----9-----|--9-----9-----9-----9-----|
--9-----9-----9-----9-----|--9-----9-----9-----9-----|
--------------------------|--------------------------|
--------------------------|--------------------------|

   
--------------------------|------------------------------|
--------------------------|------------------------------|
--9-----9-----9-----9-----|---9------9------9------9-----|
--9-----9-----9-----9-----|--10-----10-----10-----10-----|
--------------------------|------------------------------|
--------------------------|------------------------------|

 
----------------------------|--------------------------|
----------------------------|-----------------------7--|
---9------9-----9-----9-----|--9-----9-----9-----9-----|
--10-----10-----9-----9-----|--9-----5-----9--9--5-----|
----------------------------|--------------------------|
----------------------------|--------------------------|

  
--------------------------|--------------------------|
--8--------7-----------5--|-----------------------5--|
--9-----9-----9-----9-----|--9-----9--7--9-----9-----|
--9-----5-----9-----5-----|--9-----5-----9-----5-----|
--------------------------|--------------------------|
--------------------------|--------------------------|

   
----------------------------|---0------------------------|
----------------------------|------7---8-----------------|
---9-----9------9-----9-----|---9------9-----9-----9-----|
--10-----5-----10-----5-----|--10------------9-----5-----|
----------------------------|---------10-----------------|
----------------------------|----------------------------|


Chorus  
------------------------------|------------------------------|
--12-----12-----12-----12-----|--12-----12-----12-----12-----|
--12-----12-----12-----12-----|--12-----12-----12-----12-----|
------------------------------|------------------------------|
------------------------------|------------------------------|
------------------------------|------------------------------|

   
------------------------------|--12-----14-----15-----17-----|
--12-----12-----12-----12-----|--12-----12-----12-----12-----|
--12-----12-----12-----12-----|--12-----12-----12-----12-----|
------------------------------|------------------------------|
------------------------------|------------------------------|
------------------------------|------------------------------|

  
--19--------------------------|------------------------------|
--12-----12-----12-----12-----|--12-----12-----12-----12-----|
--12-----12-----12-----12-----|--12-----12-----12-----12-----|
------------------------------|------------------------------|
------------------------------|------------------------------|
------------------------------|------------------------------|

  
-------------------------------|--15-----12---------------------|
--12-----12-----12-----12--12--|--12-----12--12--12--10--12--8--|
--12-----12-----12-----12------|--12-----12------12------12-----|
-------------------------------|--------------------------------|
-------------------------------|--------------------------------|
-------------------------------|--------------------------------|


Chorus  
------------------------------|------------------------------|
------------------------------|------------------------------|
---9------9------9------9-----|---9------9------9------9-----|
--10-----10-----10-----10-----|--10-----10-----10-----10-----|
------------------------------|------------------------------|
------------------------------|------------------------------|

  
------------------------7--|-----7-----7-----7-----7--|
--------------------10-----|--8-----7-----8-----------|
--9-----9-----9------9-----|--9-----9-----9-----9-----|
--9-----9-----9------9-----|--9-----9-----9-----9-----|
---------------------------|--------------------------|
---------------------------|--------------------------|

 
------------------------------|------------------------------|
---8--------------------------|------------------------------|
---9------9------9------9-----|---9------9------9------9-----|
--10-----10-----10-----10-----|--10-----10-----10-----10-----|
------------------------------|------------------------------|
------------------------------|------------------------------|

               

                                                       Verse
------------------------7--|-----7-----7-----7-----7--|--12----------------|
--------------------10-----|--8-----7-----8-----------|--------------------|
--9-----9-----9------9-----|--9-----9-----9-----9-----|--------------------|
--9-----9-----9------9-----|--9-----9-----9-----9-----|--------------------|
---------------------------|--------------------------|--------------------|
---------------------------|--------------------------|--------------------|

              
--12-----------------------|--------------------------|--------------------|
-----------12----------10--|----------------------10--|--------------------|
---------------------------|----------12--------------|--------------------|
---------------------------|----------------------10--|--------------------|
---------------------------|--------------------------|--------------------|
---------------------------|--------------------------|--------------------|

  
-----------------------|--12-----12-----12-----12-----|
-----------------------|--12-----12-----12-----12-----|
----------9------------|--12-----12-----12-----12-----|
--10-------------------|------------------------------|
-----------------------|------------------------------|
-----------------------|------------------------------|

  
--12-----12-----12-----12-----|--12-----12-----12-----12-----|
--12-----12-----12-----12-----|--12-----12-----12-----12-----|
--12-----12-----12-----12-----|--12-----12-----12-----12-----|
------------------------------|------------------------------|
------------------------------|------------------------------|
------------------------------|------------------------------|

   
--12-----12-----12-----12-----|--12-----12-----12-----12-----|
--13-----13-----13-----13-----|--13-----13-----12-----12-----|
--14-----14-----14-----14-----|--14-----14-----12-----12-----|
------------------------------|------------------------------|
------------------------------|------------------------------|
------------------------------|------------------------------|


Chorus  
------------------------------|------------------------------|
--12-----12-----12-----12-----|--12-----12-----12-----12-----|
--12-----12-----12-----12-----|--12-----12-----12-----12-----|
------------------------------|------------------------------|
------------------------------|------------------------------|
------------------------------|------------------------------|

  
------------------------------|------------------------------|
--12-----12-----12-----12-----|--12-----12-----12-----12-----|
--12-----12-----12-----12-----|--12-----12-----12-----12-----|
------------------------------|------------------------------|
------------------------------|------------------------------|
------------------------------|------------------------------|

   
------------------------------|------------------------------|
--12-----12-----12-----12-----|--12-----12-----12-----12-----|
--12-----12-----12-----12-----|--12-----12-----12-----12-----|
------------------------------|------------------------------|
------------------------------|------------------------------|
------------------------------|------------------------------|

   
------------------------------|--15-----12-------------------|
--12-----12-----12-----12-----|----------------12-----10-----|
--12-----12-----12-----12-----|---------11-----12-----11-----|
------------------------------|--14--------------------------|
------------------------------|------------------------------|
------------------------------|------------------------------|

              
-------------------||
--8----------------||
--9----------------||
-------------------||
-------------------||
-------------------||



Chords:

     C      Em      Em7     Em6    Cmaj/E
e|---0---|---0---|---0---|---0---|---0---||
B|---1---|---0---|---3---|---2---|---1---||
G|---0---|---0---|---0---|---0---|---0---||
D|---2---|---2---|---2---|---2---|---2---||
A|---3---|---2---|---2---|---2---|---2---||
E|-------|---0---|---0---|---0---|---0---||


| /  slide up
| \  slide down
| h  hammer-on
| p  pull-off
| ~  vibrato
| +  harmonic
| x  Mute note
===========================================================================
            
Hard to play? Try these video lessons and learn fast. | Correct




comments powered by Disqus
↑ Back to top | Tablatures and chords are parodies/interpretations of the original songs. You may use it for private study, scholarship, research or language learning purposes only