» » »

Beatles, Eleanor Rigby Tabs (ver.5)

Artists:  A B C D E F G H I J K L M N O P Q R S T U V W X Y Z # 

Eleanor Rigby Tabs (ver.5)

Beatles Tabs
 Rating:
4/5 (4 votes)
Eleanor Rigby lessons Tabs too difficult? Try these video lessons and learn fast
1
                ----------------------------------------------------------------------------
                             ELAENOR RIGBY - The Beatles
----------------------------------------------------------------------------

Tuning: Standard

First off i wanna give shout our to my bandmates Joe and Mason, u guys are awesome.
This is a cool song, and i noticed they just had the chords posted, so i went and 
out the melody.

Intro thingy
e|----------------------------0-7-5-7-3-7-5-7-3-----------------------------|
B|----------10--------------------------------------------------------------|
G|-9--11-12----12-11-9------------------------------------------------------|
D|---------------------9-7-5------------------------------------------------|
A|--------------------------------------------------------------------------|
E|--------------------------------------------------------------------------|
Verse
e|-------------------------10-----------------------------------------------|
B|----10-12----------10-12----14-12-14-12-10-12-10----10---10-12-13-12------|
G|-12-------12-9--12-------------------------------12----12-----------------|
D|--------------------------------------------------------------------------|
A|--------------------------------------------------------------------------|
E|--------------------------------------------------------------------------|
Chorus
e|-------------------12------------------------------15-12------------------|
B|-10-8-10-12-8---------12-10-8----10-8-10-12-8------------12-10-8----------|
G|--------------9--9------------9---------------9--9------------------------|
D|--------------------------------------------------------------------------|
A|--------------------------------------------------------------------------|
E|--------------------------------------------------------------------------|

That's about it. Pretty easy but a nice tune.
============================================================================
            
Submit corrections

comments powered by Disqus
↑ Back to top | Beatles Tabs for Eleanor Rigby. Lyrics for acoustic guitar and electric guitar. 1 Tablatures and chords are parodies/interpretations of the original songs. You may use it for private study, scholarship, research or language learning purposes only