>
 >
Eleanor Rigby 3

Eleanor Rigby 3 Guitar Tabs

Beatles - Eleanor Rigby 3 chords, tabs, tablatures, lyrics

Guitar lessons | Add/correct | Request | Top 50 tabs Artists:  A B C D E F G H I J K L M N O P Q R S T U V W X Y Z 0-9

Eleanor Rigby 3 Guitar Tabs – Beatles

CD, Sheet music, Poster

Do you like Eleanor Rigby 3? Share with your friends now
Bass TabsBass Tabs v2ChordsChords v2Chords v3Chords v4Chords v5TabsTabs v2Tabs v3Tabs v4Tabs v5Tabs v6Tabs v7Tabs v8Tabs v9Ukulele
Track: Eleanor Rigby

I really want to produce a cover of this track but with guitars rather than the string
instruments they used in the song, so I've been painstakingly working at this.  The
bassier notes are the ones I've had most trouble working out, but I think I've got them
quite close (if you know any corrections, please comment).  The octaves are most likely
played by two string instruments in the original recording as well, but it just saved
space putting them on one.  The hardest sections to work out were probably at 1:30 and
1:39, but I EQ'd the track to try and get it and I think I've got it almost spot on.
Some of the timing may be slightly out, but hopefully you will be able to work out where
each note goes as most of it is quite easy to hear.

Standard tuning

0:00
|-------------------------------------------------------------------|
|-------------------------------------------------------------------|
|-------------------------------------------------------------------|
|-------------------------------------------------------------------|
|-3---3-------------------------------------------------------------|
|---3---3-------------------------------5-3-0-----------------------|
|
|
|-------------------------------------------------------------------|
|-------------------------------------------------------------------|
|-------------------------------------------------------------------|
|-2---2---2---2---2---2---2---2----2----2---2---2---2---2---2---2---|
|-3---3---3---3---3---3---3---3----2----2---2---2---2---2---2---2---|
|-------------------------------------------------------------------|
|
|
|-3---------------------------------------------5-7---7---7---7---7-|
|-5-------------------------------------------------8---7---8---7---|
|-------------------------------------------------------------------|
|-------------------------------------------------------------------|
|-------------------------------------------------------------------|
|-------------------------------------------------------------------|
  Ahhhh     look at all the lonely people


0:08
|-------------------------------------------------------------------|
|-------------------------------------------------------------------|
|-------------------------------------------------------------------|
|-------------------------------------------------------------------|
|-3-----------------------------------------------------------------|
|---3-2-0-------------------------------7-5-0-----------------------|
|
|
|-------------------------------------------------------------------|
|-------------------------------------------------------------------|
|-------------------------------------------------------------------|
|-2---2---2---2---2---2---2---2----2----2---2---2---2---2---2---2---|
|-3---3---3---3---3---3---3---3----2----2---2---2---2---2---2---2---|
|-------------------------------------------------------------------|
|
|
|-3---------------------------------------------5-7---7---7---7---7-|
|-5-------------------------------------------------8---7---8---7---|
|-------------------------------------------------------------------|
|-------------------------------------------------------------------|
|-------------------------------------------------------------------|
|-------------------------------------------------------------------|
  Ahhhh     look at all the lonely people


0:14
|------------------------------------------------------------|
|-5--5--5--5--5--5--5--5--5--5--5--5--5--5--5--5--5--5--5--5-|
|-x--x--x--x--x--x--x--x--x--x--x--x--x--x--x--x--x--x--x--x-|
|-2--2--2--2--2--2--2--2--2--2--2--2--2--2--2--2--2--2--2--2-|
|------------------------------------------------------------|
|------------------------------------------------------------|
|
|
|------------------------------------------------------------|
|------------------------------------------------------------|
|-------------------------------------------5----------------|
|----------------------------------------5-----5-----0--2----|
|-------------------------------------3-----------3----------|
|------------------------------------------------------------|


0:23
|---------------------------------------------------------------------------------|
|-5-5-5-5-5-5-5-5-5-5-5-5-5-5-5-5-5-5-5-5-5-5-5-5-5-5-5-5-5-5-5-5-5-5-5-5-5-5-5-5-|
|-x-x-x-x-x-x-x-x-x-x-x-x-x-x-x-x-x-x-x-x-x-x-x-x-x-x-x-x-x-x-x-x-x-x-x-x-x-x-x-x-|
|-2-2-2-2-2-2-2-2-2-2-2-2-2-2-2-2-2-2-2-2-2-2-2-2-2-2-2-2-2-2-2-2-2-2-2-2-2-2-2-2-|
|---------------------------------------------------------------------------------|
|---------------------------------------------------------------------------------|
|
|
|---------------------------------------------------------------------------------|
|---------------------------------------------------------------------------------|
|-------------------------------------------------------------5-------------------|
|-2---2---2---2---2---2---2---2---2---2---2---0---0-------5-------5-------1---2---|
|-----------------------------------------------------3---------------3-----------|
|---------------------------------------------------------------------------------|


0:31
|-7--7--7--7--7--7--7--7--7--7--7--7--7--7--7--7-|
|-5--5--5--5--5--5--5--5--5--5--5--5--5--5--5--5-|
|------------------------------------------------|
|------------------------------------------------|
|------------------------------------------------|
|------------------------------------------------|
|
|
|------------------------------------------------|
|------------------------------------------------|
|-7-----------6-----------5-----------4----------|
|------------------------------------------------|
|------------------------------------------------|
|------------------------------------------------|


0:39
|-7--7--7--7--7--7--7--7--7--7--7--7--7--7-----7--7-|
|-5--5--5--5--5--5--5--5--5--5--5--5--5--5-----5--5-|
|---------------------------------------------------|
|---------------------------------------------------|
|---------------------------------------------------|
|---------------------------------------------------|
|
|
|---------------------------------------------------|
|---------------------------------------------------|
|-7-----------6-----------5-----------4-------------|
|---------------------------------------------------|
|---------------------------------------------------|
|---------------------------------------------------|
|
|
|-------------------------------------15-12---------|
|-------------------------------------------12-10-8-|
|---------------------------------------------------|
|---------------------------------------------------|
|---------------------------------------------------|
|---------------------------------------------------|


0:45
|--------------------------------------------------------------------------------|
|-5---5---5---5---5---5---5---5---5---5---5---5---5---5---5---5---5---5---5---5--|
|-x---x---x---x---x---x---x---x---x---x---x---x---x---x---x---x---x---x---x---x--|
|-2---2---2---2---2---2---2---2---2---2---2---2---2---2---2---2---2---2---2---2--|
|--------------------------------------------------------------------------------|
|--------------------------------------------------------------------------------|
|
|
|--------------------------------------------------------------------------------|
|--------------------------------------------------------------------------------|
|--------------------------------------------------------------------------------|
|-------------------------------------------------------------------------2------|
|-------------------------------------------------------0-2-0-2-3----------------|
|-------------------------------------------------0-2-3--------------------------|


0:54
|--------------------------------------------------------------------------------|
|-5---5---5---5---5---5---5---5---5---5---5---5---5---5---5---5---5---5---5---5--|
|-x---x---x---x---x---x---x---x---x---x---x---x---x---x---x---x---x---x---x---x--|
|-2---2---2---2---2---2---2---2---2---2---2---2---2---2---2---2---2---2---2---2--|
|--------------------------------------------------------------------------------|
|--------------------------------------------------------------------------------|
|
|
|--------------------------------------------------------------------------------|
|--------------------------------------------------------------------------------|
|--------------------------------------------------------------------------------|
|-------------------------------------------------------------------------2------|
|-------------------------------------------------------0-2-0-2-3----------------|
|-0---0---0---0---0---0---0---0---0---0---0---0---0-2-3--------------------------|
|
|
|--------------------------------------------------------------------------------|
|--------------------------------------------------------------------------------|
|--------------11-12------11------9-------7-------9---------------9-11-12--------|
|-----------9-14-----------------------------------------------------------------|
|--------------------------------------------------------------------------------|
|--------------------------------------------------------------------------------|


1:03
|-7--7--7--7--7--7--7--7--7--7--7--7--7--7--7--7--|
|-5--5--5--5--5--5--5--5--5--5--5--5--5--5--5--5--|
|-------------------------------------------------|
|-------------------------------------------------|
|-------------------------------------------------|
|-------------------------------------------------|
|
|
|-------------------------------------------------|
|-------------------------------------------------|
|-7-----------6-----------5-----------4-----------|
|-------------------------------------------------|
|-------------------------------------------------|
|-------------------------------------------------|
|
|
|-------------------------------------12-14-15-17-|
|-------------------------------------------------|
|-------------------------------------------------|
|-------------------------------------------------|
|-------------------------------------------------|
|-------------------------------------------------|


1:10
|-7--7--7--7--7--7--7--7--7--7--7--7--7--7-----7--7-|
|-5--5--5--5--5--5--5--5--5--5--5--5--5--5-----5--5-|
|---------------------------------------------------|
|---------------------------------------------------|
|---------------------------------------------------|
|---------------------------------------------------|
|
|
|---------------------------------------------------|
|---------------------------------------------------|
|-7-----------6-----------5-----------4-------------|
|---------------------------------------------------|
|---------------------------------------------------|
|---------------------------------------------------|
|
|
|-19----------------------------------15-12---------|
|----------------------------------12-------12-10-8-|
|---------------------------------------------------|
|---------------------------------------------------|
|---------------------------------------------------|
|---------------------------------------------------|


1:17
|-------------------------------------------------------------------|
|-------------------------------------------------------------------|
|-------------------------------------------------------------------|
|-------------------------------------------------------------------|
|-3---3-------------------------------------------------------------|
|---3---3-------------------------------5-3-0-----------------------|
|
|
|-------------------------------------------------------------------|
|-------------------------------------------------------------------|
|-------------------------------------------------------------------|
|-2---2---2---2---2---2---2---2----2----2---2---2---2---2---2---2---|
|-3---3---3---3---3---3---3---3----2----2---2---2---2---2---2---2---|
|-------------------------------------------------------------------|
|
|
|-3---------------------------------------------5-7---7---7---7---7-|
|-5-------------------------------------------------8---7---8---7---|
|-------------------------------------------------------------------|
|-------------------------------------------------------------------|
|-------------------------------------------------------------------|
|-------------------------------------------------------------------|
  Ahhhh     look at all the lonely people


1:24
|-------------------------------------------------------------------|
|-------------------------------------------------------------------|
|-------------------------------------------------------------------|
|-------------------------------------------------------------------|
|-3-----------------------------------------------------------------|
|---3-1-0-------------------------------7-5-0-----------------------|
|
|
|-------------------------------------------------------------------|
|-------------------------------------------------------------------|
|-------------------------------------------------------------------|
|-2---2---2---2---2---2---2---2----2----2---2---2---2---2---2---2---|
|-3---3---3---3---3---3---3---3----2----2---2---2---2---2---2---2---|
|-------------------------------------------------------------------|
|
|
|-3---------------------------------------------5-7---7---7---7---7-|
|-5-------------------------------------------------8---7---8---7---|
|-------------------------------------------------------------------|
|-------------------------------------------------------------------|
|-------------------------------------------------------------------|
|-------------------------------------------------------------------|
  Ahhhh     look at all the lonely people


1:30
|---------------------------------------------------------------------------------|
|---------------------------------------------------------------------------------|
|-----9-----9---------9-----9---------9-----9-------------------------------------|
|---9-----9-----9---9-----9-----9---9-----9-----9---9---9---9---9---9---9---9---9-|
|-7-----7-----7---7-----7-----7---7-----7-----7---7---7---7---7---5---5---7---7---|
|---------------------------------------------------------------------------------|
|
|
|---------------------------------------------------------------------------------|
|-----------------------12-----10-------8-----10----------------------------------|
|-------------------------------------------------------------------------9-------|
|-----------------------------------------------------------------10--------------|
|---------------------------------------------------------------------------------|
|---------------------------------------------------------------------------------|
|
|
|-12------------------------------------------|
|---------------------------------------------|
|---------------------------------------------|
|---------------------------------------------|
|---------------------------------------------|
|---------------------------------------------|


1:39
|-12--12--12--12--12--12--12--12--12--12--12--12--12--12--12--12--12--12--12--12--|
|-12--12--12--12--12--12--12--12--12--12--12--12--12--12--12--12--12--12--12--12--|
|---------------------------------------------------------------------------------|
|---------------------------------------------------------------------------------|
|---------------------------------------------------------------------------------|
|---------------------------------------------------------------------------------|
|
|
|---------------------------------------------------------------------------------|
|---------------------------------------------------------------------------------|
|-----------------------4-7---6-4-6---4-2-4---2-0-2---------2---------------------|
|-5------------2-4-5-7------------------------------------2---2-----------2-------|
|------------2----------------------------------------------------0---------------|
|---------------------------------------------------------------------------------|


1:48
|-7--7--7--7--7--7--7--7--7--7--7--7--7--7--7--7--|
|-5--5--5--5--5--5--5--5--5--5--5--5--5--5--5--5--|
|-------------------------------------------------|
|-------------------------------------------------|
|-------------------------------------------------|
|-------------------------------------------------|
|
|
|-------------------------------------------------|
|-------------------------------------------------|
|-7-----------6-----------5-----------4-----------|
|-------------------------------------------------|
|-------------------------------------------------|
|-------------------------------------------------|


1:55
|-7--7--7--7--7--7--7--7--7--7--7--7--7--7--7--7--7-|
|-5--5--5--5--5--5--5--5--5--5--5--5--5--5--5--5--5-|
|---------------------------------------------------|
|---------------------------------------------------|
|---------------------------------------------------|
|---------------------------------------------------|
|
|
|---------------------------------------------------|
|---------------------------------------------------|
|-7-----------6-----------5-----------4-------------|
|---------------------------------------------------|
|---------------------------------------------------|
|---------------------------------------------------|
|
|
|-------------------------------------15-12---------|
|-------------------------------------------12-10---|
|-------------------------------------------------9-|
|-------------------------------------------------9-|
|-------------------------------------------------7-|
|---------------------------------------------------|





Comments


Popular Beatles tabs & chords
All My Loving 2 Bass Tabs
All My Loving 4 Bass Tabs
A Taste Of Honey 1 Chords
Cristmas Is Here Again Chords
8 Days A Week Tabs
Because 1 Tabs
Blackbird 4 Tabs
Don't Let Me Down 1 Tabs
Help! Tabs
Here, There & Everywhere Tabs


Song lyrics



↑ Back to top | Tablatures and chords are parodies/interpretations of the original songs. You may use it for private study, scholarship, research or language learning purposes only
© 2014 AZChords.com Contact us | Privacy policy | DMCA | Add/correct tabs | Request tabs | Top 50 tabs