» » »

Eight Days A Week Bass tabs (ver.3)

Artists:  A B C D E F G H I J K L M N O P Q R S T U V W X Y Z # 

Eight Days A Week Bass tabs (ver.3)

Beatles
Rating:
0/5 (0 votes)

Hard to play? Try these video lessons and learn fast.
                		    	A
|----------------------------------------------------|
|--0-------------------------------0-----0-----------|
|-----2--0------------2--------2-----2------0--------|
|------------2--0--4----4--3-------------------2-----|


					B
|-------------------------------------------------------|
|-------------------------------------------------------|
|--2--2--2--2----------------2--2--2--2-----------------|
|----------------3--3--3--3-----------------3--3--3--3--|


					C
|------------------------------------------------|
|------------------------------------------------|
|--0--0--0--0--0--0--0--0--2--2--2--2--2--2--2--2|
|------------------------------------------------|
				C (continued)
|--------------------------------------------------|
|--------------------------------------------------|
|--------------------------------------0--0--0--0--|
|0--0--0--0--0--0--0--0--3--3--3--3----------------|


			D
|-------------------------------------|
|--0-------------------0----0---------|
|-----2--0---------2-----2-----2--0---|
|------------2--0-------------------2-|


Intro (open A string) | A | A | B | A | A | A | B | A | C | A | B | A | C | A | B | A | 
| D | D | (repeat intro)
            
Hard to play? Try these video lessons and learn fast. | Correct




comments powered by Disqus
↑ Back to top | Tablatures and chords are parodies/interpretations of the original songs. You may use it for private study, scholarship, research or language learning purposes only