» » »

Beatles, Don't Pass Me By Bass tabs (ver.1)

Artists:  A B C D E F G H I J K L M N O P Q R S T U V W X Y Z # 

Don't Pass Me By Bass tabs (ver.1)

Beatles Tabs
 Rating:
4/5 (4 votes)
Don't Pass Me By lessons Tabs too difficult? Try these video lessons and learn fast
                not sure about this seems to ez but hear it is
beatles - Dont Pass Me By


Tuning G,D,A,E

Timeing 2/4


|5-5-------------5---------------|5---------------5---------------|
|------------------------5-------|--------5---------------5-------|
|--------------------------------|--------------------------------|
|--------------------------------|--------------------------------|


|5---------------5---------------|5---5-----------5---------------|
|--------5---------------5-------|--------5---------------5-------|
|--------------------------------|--------------------------------|
|--------------------------------|--------------------------------|


|5-------------------------------|--------------------------------|
|--------5---5---3---------------|3---------------3---------------|
|------------------------3-------|--------3---------------3-------|
|--------------------------------|--------------------------------|


|--------------------------------|--------------------------------|
|3-------2---3---5---------------|5---------------5---------------|
|------------------------5-------|--------5---------------5-------|
|--------------------------------|--------------------------------|


|--------------------------------|--------------------------------|
|5---------------3---------------|3---------------3---3---3---5---|
|--------5---------------3-------|--------3-----------------------|
|--------------------------------|--------------------------------|


|5---------------5---------------|5---------------5---------------|
|--------5---------------5-------|--------5---------------5-------|
|--------------------------------|--------------------------------|
|--------------------------------|--------------------------------|


|----------------|5---------------|
|5-------5-------|--------5-------|
|----------------|----------------|
|----------------|----------------|

it just keeps goin like that
            
Submit corrections

comments powered by Disqus
↑ Back to top | Beatles Bass for Don't Pass Me By. Lyrics for acoustic guitar and electric guitar. Tablatures and chords are parodies/interpretations of the original songs. You may use it for private study, scholarship, research or language learning purposes only