>
 >
Dont Let Me Down 2

Dont Let Me Down 2 Bass Tabs

Beatles - Dont Let Me Down 2 chords, tabs, tablatures, lyrics

Guitar lessons | Add/correct | Request | Top 50 tabs Artists:  A B C D E F G H I J K L M N O P Q R S T U V W X Y Z 0-9

Dont Let Me Down 2 Bass Tabs – Beatles

CD, Sheet music, Poster

Do you like Dont Let Me Down 2? Share with your friends now
Bass TabsBass Tabs v2Bass Tabs v3
DONíT LET ME DOWN

Written by John Lennon

  4/4
G|---------------------------------|---------------------------------|
D|---------------------------------|---------14\---------------------|
A|---------------------------------|---------------------------------|
E|-0-------------------------------|---------------------------------|

CHORUS

G|-----------------1111111111------|---------------------------------|
D|-------------11--------------11p9|-----------------11----------11--|
A|-9-------------------------------|-9-----------9-------------------|
E|---------------------------------|---------------------------------|

G|-----------------9-9-9-9-9-------|-----------------9---------------|
D|-------------9---------------9h11|-------------9---------------9---|
A|-7-------------------------------|-7-------------------------------|
E|---------------------------------|---------------------------------|

G|-----------------1111111111------|-------------11\-----------------|
D|-------------11--------------9h11|---------------------------------|
A|-9-------------------------------|-9-------------------------------|
E|---------------------------------|-----------------9-----------9---|

G|-----------------9-9-9-9-9-------|
D|-------------9---------------9h11|
A|-7-------------------------------|
E|---------------------------------|

VERSE

  5/4                                       4/4
G|-----------------------------------------|---------------------------------|
D|-----------------------------------------|-------------11------------------|
A|-7---------------------------------------|-9---------------------------7---|
E|-----------------------------------------|-------------------------9-------|

G|---------------------------------|---------------------------------|
D|-------------11------------------|-------------9-------------------|
A|-9---------------------------6---|-7---------------------------6---|
E|-------------------------7-------|-------------------------7-------|

  5/4                                       4/4
G|-----------------------------------------|---------------------------------|
D|-----------------------------------------|------------/11------------------|
A|-7---------------------------------------|-9---------------------------7---|
E|-----------------------------------------|-------------------------9-------|

G|---------------------------------|---------------------------------|
D|------------/11------------------|-------------9-------------------|
A|-9-------------------------------|-7---------------------------6---|
E|-------------------------7-------|-------------------------7-------|

                                   CHORUS
G|-------9-9\----------------------|-----------------1111111111------|
D|---------------------------------|-------------11--------------11p9|
A|-7-------------------------------|-9-------------------------------|
E|---------------------------------|---------------------------------|

G|---------------------------------|-----------------9-9-9-9-9-------|
D|-------------11\-----------------|-------------9---------------9h11|
A|-9---9---9-----------------------|-7-------------------------------|
E|---------------------------------|---------------------------------|

G|-----------------9---------------|-----------------1111111111------|
D|-------------9---------------9---|-------------11--------------9h11|
A|-7-------------------------------|-9-------------------------------|
E|---------------------------------|---------------------------------|

G|---------------------------------|-----------------9-9-9-9-9-------|
D|-------------11\-11---11---------|-------------9---------------9h11|
A|-9-------------------------------|-7-------------------------------|
E|---------------------------9-----|---------------------------------|

BRIDGE

G|---------------------------------|---------9---8-------9---6-------|
D|---------------------------------|---------------------------------|
A|-7-------------------------------|-7-------------------------------|
E|---------------------------------|---------------------------------|

G|-9-----------9-------9-------9---|---------------------------------|
D|-----9-----------6---------------|---------------------7-----------|
A|-------------------------9-------|---------9---6-----------9-------|
E|---------------------------------|-7-------------------------------|

G|---------------------------------|---------------------------------|
D|-6-------------------------------|---------------------7-----------|
A|-----7-------9---6---7-------6---|-7-------9---6-----------9-------|
E|-------------------------9-------|---------------------------------|

G|---------------------------------|---------------------------------|
D|-6-------------------------------|-------------6---7-7-7-7-7-6-----|
A|-----7-------9---6---7-------6---|-7---7---7h9-----------------9---|
E|-------------------------9-------|---------------------------------|

G|---------------------------------|
D|---------------------------------|
A|-7-------------------------------|
E|---------------------------------|

CHORUS

G|-----------------1111111111------|---------------------------------|
D|-------------11--------------11p9|-------------11\-11--------------|
A|-9-------------------------------|-9-------------------------------|
E|---------------------------------|---------------------------------|

G|-----------------9-9-9-9-9-------|-----------------9-9-9-9-9-------|
D|-------------9---------------9h11|-------------9---------------9---|
A|-7-------------------------------|-7-------------------------------|
E|---------------------------------|---------------------------------|

G|-----------------9h119h119h119h11|-9h119h119h1111------------------|
D|-------------11------------------|---------------------------------|
A|-9-------------------------------|---------------------------------|
E|---------------------------------|-----------------9-----------9---|

G|-----------------9-9-9-9-9-------|
D|-------------9---------------9h11|
A|-7-------------------------------|
E|---------------------------------|

VERSE

  5/4                                       4/4
G|-----------------------------------------|---------------------------------|
D|-----------------------------------------|-------------11------------------|
A|-7---------------------------------------|-9---------------------------7---|
E|-----------------------------------------|-------------------------9-------|

G|---------------------------------|---------------------------------|
D|-------------11------------------|-------------9-------------------|
A|-9---------------------------6---|-7---------------------------6---|
E|-------------------------7-------|-------------------------7-------|

  5/4                                       4/4
G|-----------------------------------------|---------------------------------|
D|-----------------------------------------|------------/11------------------|
A|-7---------------------------------------|-9---------------------------7---|
E|-----------------------------------------|-------------------------9-------|

G|---------------------------------|---------------------------------|
D|------------/11------------------|-------------9-------------------|
A|-9---------------------------6---|-7-------------------7\------6---|
E|-------------------------7-------|-------------------------7-9-----|

                                   CHORUS
G|-------9-9\----------------------|-----------------1111111111------|
D|---------------------------------|-------------11--------------11p9|
A|-7-------------------------------|-9-------------------------------|
E|---------------------------------|---------------------------------|

G|---------------------------------|-----------------9-9-9-9-9-------|
D|-------------11\-----------------|-------------9---------------9h11|
A|-9-------------------------------|-7-------------------------------|
E|-----------------9-----7-----9---|---------------------------------|

G|-------6-9---9-------------------|-----------------1111111111------|
D|-----9---------------------------|-------------11--------------9h11|
A|-7-------------------------------|-9-------------------------------|
E|---------------------------------|---------------------------------|

G|-------6-9-----------------------|-----------------9-9-9-9-9-------|
D|-----9-----------11\-------------|-------------9---------------9h11|
A|-9-------------------------------|-7-------------------------------|
E|-----------------------------9---|---------------------------------|

G|---------------------------------|
D|---------------------------------|
A|-7-------------------------------|
E|---------------------------------|

OUTRO

G|-----------------9h119h119h119---|-----9h11------------------------|
D|-------------9h11----------------|-9h11----------------9-----------|
A|-9---9---9-----------------------|-------------9---------------6---|
E|---------------------------------|-------------------------7-------|

G|-----------------9---9-----------|-----------------9---------------|
D|-----6---9---11----------119-----|-------------9-----119-----------|
A|-7--------------------------11---|-7---------------------11--7-8---|
E|---------------------------------|---------------------------------|

G|-------------9h119h119h119h119h11|-9h119-------9h11----------------|
D|---------11----------------------|---------9h11------------11------|
A|-9---9---------------------------|-----------------9---9---------6-|
E|---------------------------------|-----------------------------7---|

G|-------------9-------------------|---------------------------------|
D|---------6-9-----7-7-7-7-7-------|---------------------------------|
A|-7---7-----------------------6---|-7-------------------------------|
E|---------------------------------|---------------------------------|





Comments


Popular Beatles tabs & chords
All You Need Is Love 2 Chords
And Your Bird Can Sing 4 Chords
Being For The Benefit Of Mr Kite 1 Chords
Dig It 1 Chords
Glad All Over Chords
One After Nine Oh Nine Chords
Sun King Chords
And Your Bird Can Sing 6 Tabs
Golden Slumbers 1 Tabs
I'm Only Sleeping Tabs


Song lyrics



↑ Back to top | Tablatures and chords are parodies/interpretations of the original songs. You may use it for private study, scholarship, research or language learning purposes only
© 2014 AZChords.com Contact us | Privacy policy | DMCA | Add/correct tabs | Request tabs | Top 50 tabs