>
 >
Dont Let Me Down

Dont Let Me Down Bass Tabs

Beatles - Dont Let Me Down chords, tabs, tablatures, lyrics

Guitar lessons | Add/correct | Request | Top 50 tabs Artists:  A B C D E F G H I J K L M N O P Q R S T U V W X Y Z 0-9

Dont Let Me Down Bass Tabs – Beatles

CD, Sheet music, Poster

Do you like Dont Let Me Down? Share with your friends now
Bass TabsBass Tabs v2Bass Tabs v3
 - Dont Let Me Down
Beatles - don't let me down

i dont know about this one too it seams to ez

tuneing G,D,A,E

Timeing 5/4

|--------------------------------|--------9-----------------------|
|--------------------------------|--------------------------------|
|--------------------------------|--------------------------------|
|0-------------------------------|--------------------------------|


|----------------1111111111------|----------------4-----------4---|
|------------11--------------119-|4-----------4-------------------|
|9-------------------------------|--------------------------------|
|--------------------------------|--------------------------------|


|----------------9-9-9-9-9-----6-|----------------9---------------|
|------------9---------------9---|------------9---------------9---|
|7-------------------------------|7-------------------------------|
|--------------------------------|--------------------------------|


|----------------1111111111------|------------6-------------------|
|------------11--------------9-11|4-------------------------------|
|9-------------------------------|--------------------------------|
|--------------------------------|----------------7-----------7---|


|----------------9-9-9-9-9-----6-|----------------------------------------|
|------------9---------------9---|2---------------------------------------|
|7-------------------------------|----------------------------------------|
|--------------------------------|----------------------------------------|


|------------6-------------------|------------6-------------------|
|4-------------------------------|4-------------------------------|
|------------------------4---7---|----------------------------4---|
|--------------------------------|------------------------7-------|


|------------4-------------------|----------------------------------------|
|2---------------------------1---|2---------------------------------------|
|------------------------2-------|----------------------------------------|
|--------------------------------|----------------------------------------|


|------------6-------------------|------------6-------------------|
|4-------------------------------|4-------------------------------|
|------------------------4---7---|----------------------------4---|
|--------------------------------|------------------------7-------|


|------------4-------------------|------9-9-----------------------|
|2---------------------------1---|--------------------------------|
|------------------------2-------|7-------------------------------|
|--------------------------------|--------------------------------|


|----------------1111111111------|----------------4-----------4---|
|------------11--------------119-|4-----------4-------------------|
|9-------------------------------|--------------------------------|
|--------------------------------|--------------------------------|


|----------------9-9-9-9-9-----6-|----------------9---------------|
|------------9---------------9---|------------9---------------9---|
|7-------------------------------|7-------------------------------|
|--------------------------------|--------------------------------|

|----------------1111111111------|------------6---4----------------|
|------------11--------------9-11|4--------------------------------|
|9-------------------------------|---------------------------------|
|--------------------------------|---------------------------------|


|----------------9-9-9-9-9-----6-|--------------------------------|
|------------9---------------9---|2-------------------------------|
|7-------------------------------|--------------------------------|
|--------------------------------|--------------------------------|


|--------9---8-------9---6-------|9-----------9-------9-------9---|
|--------------------------------|----9-----------6---------------|
|7-------------------------------|------------------------9-------|
|--------------------------------|--------------------------------|


|--------------------2-----------|1-------------------------------|
|--------4---1-----------4-------|----2-------4---1---2-------1---|
|2-------------------------------|------------------------4-------|
|--------------------------------|--------------------------------|


|--------------------2-----------|1-------------------------------|
|--------4---1-----------4-------|----2-------4---1---2-------1---|
|2-------------------------------|------------------------4-------|
|--------------------------------|--------------------------------|


|------------1---2-2-2-2-2-1-----|--------------------------------|
|2---2---2-4-----------------4---|2-------------------------------|
|--------------------------------|--------------------------------|
|--------------------------------|--------------------------------|


|----------------1111111111------|----------------4-----------4---|
|------------11--------------119-|4-----------4-------------------|
|9-------------------------------|--------------------------------|
|--------------------------------|--------------------------------|


|----------------9-9-9-9-9-----6-|----------------9---------------|
|------------9---------------9---|------------9---------------9---|
|7-------------------------------|7-------------------------------|
|--------------------------------|--------------------------------|


|----------------1111111111------|------------6---4---------------|
|------------11--------------9-11|4-------------------------------|
|9-------------------------------|--------------------------------|
|--------------------------------|--------------------------------|


|----------------9-9-9-9-9-----6-|----------------------------------------|
|------------9---------------9---|2---------------------------------------|
|7-------------------------------|----------------------------------------|
|--------------------------------|----------------------------------------|


|------------6-------------------|------------6-------------------|
|4-------------------------------|4-------------------------------|
|------------------------4---7---|----------------------------4---|
|--------------------------------|------------------------7-------|


|------------4-------------------|----------------------------------------|
|2---------------------------1---|2---------------------------------------|
|------------------------2-------|----------------------------------------|
|--------------------------------|----------------------------------------|


|------------6-------------------|------------6-------------------|
|4-------------------------------|4-------------------------------|
|------------------------4---7---|----------------------------4---|
|--------------------------------|------------------------7-------|


|------------4-------------------|------9-9-----------------------|
|2---------------------------1---|--------------------------------|
|------------------------2-------|7-------------------------------|
|--------------------------------|--------------------------------|


|----------------1111111111------|----------------4-----------4---|
|------------11--------------119-|4-----------4-------------------|
|9-------------------------------|--------------------------------|
|--------------------------------|--------------------------------|


|----------------9-9-9-9-9-----6-|----------------9---------------|
|------------9---------------9---|------------9---------------9---|
|7-------------------------------|7-------------------------------|
|--------------------------------|--------------------------------|


|----------------1111111111------|------------6---4---------------|
|------------11--------------9-11|4-------------------------------|
|9-------------------------------|--------------------------------|
|--------------------------------|--------------------------------|


|----------------9-9-9-9-9-----6-|--------------------------------|
|------------9---------------9---|2-------------------------------|
|7-------------------------------|--------------------------------|
|--------------------------------|--------------------------------|


|----------------9-119-119-119---|----9-11------------11----------|
|------------9-11----------------|9-11----------------------------|
|9---9---9-----------------------|------------9-----------2-------|
|--------------------------------|----------------------------11--|

|------------6---9---9---6-------|----------------9-6-------------|
|----6---9-----------------9-6---|------------9-------9-6---------|
|7-------------------------------|7-------------------------7-8---|
|--------------------------------|--------------------------------|


|------------9-119-119-119-119-11|9-119-------9-11-----------------|
|--------11----------------------|--------9-11------------11-------|
|9---9---------------------------|----------------9---9-------2----|
|--------------------------------|------------------------------11-|


|------------9-------------------|--------------------------------|
|--------6-9-----7-7-7-7-7-------|2-------------------------------|
|7---7-----------------------6---|--------------------------------|
|--------------------------------|--------------------------------|





Comments


Popular Beatles tabs & chords
All Together Now 2 Chords
Dont Let Me Down 2 Chords
Good Morning Good Morning Chords
Rocky Raccoon Chords
Think For Yourself Chords
Why Dont We Do It Chords
A Day In The Life Tabs
Birthday (Intro) Tabs
Daytripper Riff Tabs
Her Majesty 2 Tabs


Song lyrics



↑ Back to top | Tablatures and chords are parodies/interpretations of the original songs. You may use it for private study, scholarship, research or language learning purposes only
© 2014 AZChords.com Contact us | Privacy policy | DMCA | Add/correct tabs | Request tabs | Top 50 tabs