>
 >
Dont Ever Change

Dont Ever Change Bass Tabs

Beatles - Dont Ever Change chords, tabs, tablatures, lyrics

Guitar lessons | Add/correct | Request | Top 50 tabs Artists:  A B C D E F G H I J K L M N O P Q R S T U V W X Y Z 0-9

Dont Ever Change Bass Tabs – Beatles

CD, Sheet music, Poster

Do you like Dont Ever Change? Share with your friends now
Bass TabsUkulele
DONíT EVER CHANGE

Written by Gerry Goffin & Carole King

INTRO

G|---------------------------------|---------------------------------|
D|---------------------------------|---------------------------------|
A|-7---------------7----7----7-----|-7---------------7----7----7-----|
E|---------------------------------|---------------------------------|

G|---------------------------------|---------------------------------|
D|---------------------------------|---------------------------------|
A|-7---------------7----7----7-----|-7---------------7----7----7-----|
E|---------------------------------|---------------------------------|

VERSE

G|---------------------------------|---------------------------------|
D|---------------------------------|---------------------------------|
A|-7-----------7-------------------|-7-----------7-------7--6--------|
E|-----------------7-----------7---|---------------------------------|

G|---------------------------------|---------------------------------|
D|-----------------6-----------6---|-----------------6---------------|
A|-4-----------4-------------------|-4-----------4-------------------|
E|---------------------------------|---------------------------------|

G|---------------------------------|---------------------------------|
D|-7-----------7-------------------|-7-----------7-------------------|
A|-----------------7-----------7---|-----------------7-----------7---|
E|---------------------------------|---------------------------------|

G|---------------------------------|---------------------------------|
D|-7-----------7-----------7-------|-6-----------6-----------6-------|
A|-----------------7---------------|-----------------6---------------|
E|---------------------------------|---------------------------------|

CHORUS

G|---------------------------------|---------------------------------|
D|-----------------6-----------6---|-----------------6-------6-------|
A|-4-----------4-------------------|-4-----------4-------------------|
E|---------------------------------|---------------------------------|

G|---------------------------------|---------------------------------|
D|-----------------6-----------6---|-----------------6---------------|
A|-3-----------3-------------------|-3-----------3-------------------|
E|---------------------------------|---------------------------------|

G|---------------------------------|---------------------------------|
D|-----------------9-----------9---|-----------------9---------------|
A|-7-----------7-------------------|-7-----------7-----------7-------|
E|---------------------------------|---------------------------------|

G|---------------------------------|---------------------------------|
D|-7-----------7-----------7-------|-9-------------------------------|
A|-----------------7---------------|---------------------------------|
E|---------------------------------|---------------------------------|

VERSE

G|---------------------------------|---------------------------------|
D|---------------------------------|---------------------------------|
A|-7-----------7-------------------|-7-----------7-------7--6--------|
E|-----------------7-----------7---|---------------------------------|

G|---------------------------------|---------------------------------|
D|-----------------6-----------6---|-----------------6---------------|
A|-4-----------4-------------------|-4-----------4-----------4-------|
E|---------------------------------|---------------------------------|

G|---------------------------------|---------------------------------|
D|-7-----------7-------------------|-7-----------7-----------7-------|
A|-----------------7-----------7---|---------------------------------|
E|---------------------------------|---------------------------------|

G|---------------------------------|---------------------------------|
D|-7-----------7-----------7-------|-6-----------6-----------6-------|
A|-----------------7---------------|-----------------6---------------|
E|---------------------------------|---------------------------------|

CHORUS

G|---------------------------------|---------------------------------|
D|-----------------6-----------6---|-----------------6-------6-------|
A|-4-----------4-------------------|-4-----------4-------------------|
E|---------------------------------|---------------------------------|

G|---------------------------------|---------------------------------|
D|-----------------6-----------6---|-----------------6---------------|
A|-3-----------3-------------------|-3-----------3-----------3-------|
E|---------------------------------|---------------------------------|

G|---------------------------------|---------------------------------|
D|-----------------9-----------9---|-----------------9---------------|
A|-7-----------7-------------------|-7-----------7-----------7-------|
E|---------------------------------|---------------------------------|

G|---------------------------------|---------------------------------|
D|-7-----------7-----------7-------|-9-------------------------------|
A|-----------------7---------------|---------------------------------|
E|---------------------------------|---------------------------------|

G|---------------------------------|---------------------------------|
D|-----------------9---------------|-----------------4-------6-------|
A|-7-----------7-------------------|-7-------7-----------------------|
E|---------------------------------|---------------------------------|

BRIDGE

G|---------------------------------|---------------------------------|
D|-7---------------7-----------7---|-7---------------7----7----7-----|
A|---------------------------------|---------------------------------|
E|---------------------------------|---------------------------------|

G|---------------------------------|---------------------------------|
D|-7---------------7-----------7---|-7---------------7----7----7-----|
A|---------------------------------|---------------------------------|
E|---------------------------------|---------------------------------|

G|---------------------------------|---------------------------------|
D|-7---------------7-----------7---|-7-----------7---7---------------|
A|---------------------------------|---------------------------------|
E|---------------------------------|---------------------------------|

G|---------------------------------|---------------------------------|
D|-9-----------9---7-----------7---|-6-----------6---4-------4-------|
A|---------------------------------|---------------------------------|
E|---------------------------------|---------------------------------|

VERSE

G|---------------------------------|---------------------------------|
D|-----------------9-----------9---|---------------------------------|
A|-7-----------7-------------------|-7-----------7-------7--6--------|
E|---------------------------------|---------------------------------|

G|---------------------------------|---------------------------------|
D|-----------------6-----------6---|-----------------6---------------|
A|-4-----------4-------------------|-4-----------4-----------4-------|
E|---------------------------------|---------------------------------|

G|---------------------------------|---------------------------------|
D|-7-----------7-------------------|-7-----------7-------------------|
A|-----------------7-----------7---|-----------------7-----------7---|
E|---------------------------------|---------------------------------|

G|---------------------------------|---------------------------------|
D|-7-----------7-----------7-------|-6-----------6-----------6-------|
A|-----------------7---------------|-----------------6---------------|
E|---------------------------------|---------------------------------|

CHORUS

G|---------------------------------|---------------------------------|
D|-----------------6-----------6---|-----------------6-------6-------|
A|-4-----------4-------------------|-4-----------4-------------------|
E|---------------------------------|---------------------------------|

G|---------------------------------|---------------------------------|
D|-----------------6-----------6---|-----------------6---------------|
A|-3-----------3-------------------|-3-----------3-------------------|
E|---------------------------------|---------------------------------|

G|---------------------------------|---------------------------------|
D|-----------------9-----------9---|-----------------9---------------|
A|-7-----------7-------------------|-7-----------7-----------7-------|
E|---------------------------------|---------------------------------|

G|---------------------------------|---------------------------------|
D|-7-----------7-----------7-------|-9-------------------------------|
A|-----------------7---------------|---------------------------------|
E|---------------------------------|---------------------------------|

G|---------------------------------|---------------------------------|
D|-----------------9---------------|---------------------------------|
A|-7-----------7-------------------|-----------------6----7----9-----|
E|---------------------------------|-7----7----9---------------------|

OUTRO

G|---------------------------------|---------------------------------|
D|-----------------9---------------|---------------------------------|
A|-7-----------7---------------7---|-----------------6----7----9-----|
E|---------------------------------|-7----7----9---------------------|

G|---------------------------------|---------------------------------|
D|---------------------------------|---------------------------------|
A|-7-----------7---7-----------7---|-----------------6----7----9-----|
E|---------------------------------|-7----7----9---------------------|

G|---------------------------------|---------------------------------|
D|---------------------------------|---------------------------------|
A|-7-----------7---7-----------7---|-----------------6----7----9-----|
E|---------------------------------|-7----7----9---------------------|

G|---------------------------------|
D|---------------------------------|
A|-7-----------7---7-----------7---|
E|---------------------------------|FADE OUT





Comments


Popular Beatles tabs & chords
All You Need Is Love 3 Bass Tabs
Cant Buy Me Love Bass Tabs
Come And Get It Bass Tabs
Got To Get You Into My Life 3 Bass Tabs
I Saw Her Standing There 1 Bass Tabs
Babys In Black 1 Chords
Ask Me Why Tabs
Dizzy Miss Lizzy 1 Tabs
Good Morning 1 Tabs
I'm A Loser Tabs


Song lyrics



↑ Back to top | Tablatures and chords are parodies/interpretations of the original songs. You may use it for private study, scholarship, research or language learning purposes only
© 2014 AZChords.com Contact us | Privacy policy | DMCA | Add/correct tabs | Request tabs | Top 50 tabs