» » »

Don't Bother Me Tabs (ver.1)

Artists:  A B C D E F G H I J K L M N O P Q R S T U V W X Y Z # 

Don't Bother Me Tabs (ver.1)

Beatles
Rating:
0/5 (0 votes)

Hard to play? Try these video lessons and learn fast.
                Intro riff: |-------------------|
            |-------------------|
            |-------------------|
            |-0---4---2---0-----|
            |-------------------|
            |-----------------0-|

|--------------------------|
|--------------------------|
|--------------------------|
|--------------------------|
|-5-5-5-3-2--2-0-------7-9-|
|-3-3-3-1-0-------2-0--5-7-|


then....Em for a couple of bars

Verse 1:
                 B                A              G   (RIFF 1)
Since she's been gone I've had no one to talk to me
            B               A                  G
Its not the same but I'm to blame its plain to see

Chorus 1:
        Em
So go away
          A
Leave me alone
             Em
Don't bother me

Verse 2: 
          B                    A              G  (RIFF 1)
I can't believe that she would leave me on my own
             B                A              G
Its just not right when every night I'm all alone

Chorus 2:
            Em
I've got no time
              A
For you right now
             Em
Don't bother me

Bridge:
            D            Em
I know I'll never be the same
           D             Em
If I don't get her back again
          Bm               Am
Because I know I'll always be
    C             Em
The only girl for me

Verse 3: 
               B                      A               G  (RIFF 1)
But 'til she's here please don't come near just stay away
             B                    A               G
I'll let you know when she's come home until that day

Chorus 3:
           Em
Don't come around
          A
Leave me alone
             Em
Don't bother me

Solo:
|-----------------------------------|
|------------------------8-10-10b-8-|
|------------------7--s9------------|
|----5-7-7s9-9-7-9------------------|
|-s7--------------------------------|
|-----------------------------------|

|-----------------------------------------|
|-----------------------------------------|
|-9-9-9-7----------------------7-7-7h9--9-|
|---------9-------5-7s9--9-7-9------------|
|--------------s7-------------------------|
|-----------------------------------------|

|----------------------|
|----------------------|
|-7--------------------|
|----9-7h9-9--9s7-5----|
|--------------------7-|
|----------------------|

(repeat chorus 2)

(repeat bridge)

(repeat verse 3)

(repeat chorus 3)

        A             Em
then.... Don't bother me  (4x)
            
Hard to play? Try these video lessons and learn fast. | Correct




comments powered by Disqus
↑ Back to top | Tablatures and chords are parodies/interpretations of the original songs. You may use it for private study, scholarship, research or language learning purposes only