>
 >
Dont Bother Me

Dont Bother Me Bass Tabs

Beatles - Dont Bother Me chords, tabs, tablatures, lyrics

Guitar lessons | Add/correct | Request | Top 50 tabs Artists:  A B C D E F G H I J K L M N O P Q R S T U V W X Y Z 0-9

Dont Bother Me Bass Tabs – Beatles

CD, Sheet music, Poster

Do you like Dont Bother Me? Share with your friends now
Bass TabsTabs
Don't Bother Me
The Beatles
Written by George Harrison; released on "With The Beatles" album.

George's first released song. Just great!

Intro:
G|------- ------- ------- -------|------- ------- ------- -------|
D|----------------4--------------|-------------------------------|
A|5------------------------------|7---------------5--------------|
E|-------------------------------|-------------------------------|



G|------- ------- ------- -------|------- ------- ------- -------|
D|-------------------------------|-------------------------------|
A|7---5-----------7---5----------|7---------------7--------------|
E|------------7---------------7--|-------------------------------|
                                          Since   she's been  gone,

Verse:
G|------- ------- ------- -------|------- ------- ------- -------|
D|9-----------------------7---9--|7-----------------------7------|
A|------------9-------9----------|------------7-------7----------|
E|-------------------------------|-------------------------------|
          I       want no     one         to      talk to     me,


G|------- ------- ------- -------|------- ------- ------- -------|
D|-------------------------------|-------------------------------|
A|10----------------------10--8--|7-----------------------7------|
E|------------10------10---------|------------7-------7----------|
                                          It's    not the     same,


G|------- ------- ------- -------|------- ------- ------- -------|
D|9-----------------------7---9--|7------------------------------|
A|------------9-------9----------|------------7-------7---5------|
E|-------------------------------|-------------------------------|
          but     I'm to      blame,      it's    plain   to


G|------- ------- ------- -------|------- ------- ------- -------|
D|5------------------------------|5------------------------------|
A|------------5-----------5------|-------------------------------|
E|-------------------------------|-------------------------------|
  see                                     So      go  a   -   way,


G|------- ------- ------- -------|------- ------- ------- -------|
D|-------------------------------|7-----------7---7--------------|
A|7-----------7---7--------------|-------------------------------|
E|-------------------------------|-------------------------------|
          leave   me  a   -   lone,       don't   bother      me


G|------- ------- ------- -------|------- ------- ------- -------|
D|-------------------------------|-------------------------------|
A|7-----------7---7--------------|7-----------7---7-------7------|
E|-------------------------------|-------------------------------|
                                          I       can't be  - lieve

Verse:
G|------- ------- ------- -------|------- ------- ------- -------|
D|9-----------9-----------7---9--|7-----------------------7------|
A|--------------------9----------|------------7-------7----------|
E|-------------------------------|-------------------------------|
          that    she would   leave       me      on  my      own,


G|------- ------- ------- -------|------- ------- ------- -------|
D|-------------------------------|-------------------------------|
A|10----------------------10--8--|7-----------------------5-/-7--|
E|------------10------10---------|------------7-------7----------|
                                          It's    just not    right,


G|------- ------- ------- -------|------- ------- ------- -------|
D|9-----------------------7---9--|7------------------------------|
A|------------9-------9----------|------------7-------7---5------|
E|-------------------------------|-------------------------------|
          when    every       night       I'm     all     a-


G|------- ------- ------- -------|------- ------- ------- -------|
D|5-----------------------4------|5------------------------------|
A|------------5------------------|-------------------------------|
E|-------------------------------|-------------------------------|
  lone                                    I've    got no      time


G|------- ------- ------- -------|------- ------- ------- -------|
D|-------------------------------|7-----------7---7--------------|
A|7-----------7---7--------------|-------------------------------|
E|-------------------------------|-------------------------------|
              for you right   now,        don't   bother      me


G|------- ------- ------- -------|------- ------- ------- -------|
D|-------------------------------|-------------------------------|
A|7-----------7---7--------------|7---7---7---7---7---7---7---7--|
E|-------------------------------|-------------------------------|
                                          I       know    I'll

Bridge:
G|------- ------- ------- -------|------- ------- ------- -------|
D|----------------4-----------4--|-------------------------------|
A|5-----------5------------------|7-----------7---5-----------5--|
E|-------------------------------|-------------------------------|
  ne      -       ver             be              the


G|------- ------- ------- -------|------- ------- ------- -------|
D|-------------------------------|-------------------------------|
A|7---5-----------7---5-------7--|--------7-----------7-------7--|
E|--------7---------------7------|-------------------------------|
  same,                                   if      I       don't


G|------- ------- ------- -------|------- ------- ------- -------|
D|----------------4--------------|-------------------------------|
A|5------------------------------|7---------------5--------------|
E|-------------------------------|-------------------------------|
  get             her             back            a    -      gain,


G|------- ------- ------- -------|------- ------- ------- -------|
D|-------------------------------|-------------------------------|
A|7-------7-------------------6--|7-----------------------7------|
E|----------------7---6----------|----------------7---6----------|
                                          Be  -   cause   I


G|------- ------- ------- -------|------- ------- ------- -------|
D|9-----------------------7------|9-----------------------9------|
A|------------9------------------|------------9-------9----------|
E|-------------------------------|-------------------------------|
  know                    she'll  al        -         ways


G|------- ------- ------- -------|------- ------- ------- -------|
D|7-----------------------5------|7-----------------------7------|
A|------------7-------7----------|------------7-------7----------|
E|-------------------------------|-------------------------------|
  be                                                      the


G|------- ------- ------- -------|------- ------- ------- -------|
D|------------5-------5----------|------------5-------5----------|
A|-------------------------------|-------------------------------|
E|8-----------------------8------|8-----------------------8------|
  on             -        ly      girl                for


G|------- ------- ------- -------|------- ------- ------- -------|
D|-------------------------------|-------------------------------|
A|7-----------------------5------|7------------------------------|
E|------------7-------7----------|-------------------------------|
  me                                      But     till she's  here,

Verse:
G|------- ------- ------- -------|------- ------- ------- -------|
D|9-----------------------7---9--|7-----------------------7------|
A|------------9-------9----------|------------7-------7----------|
E|-------------------------------|-------------------------------|
          please, don't come  near,       just    stay a   -  way


G|------- ------- ------- -------|------- ------- ------- -------|
D|-------------------------------|-------------------------------|
A|10----------------------10--8--|7-----------------------7------|
E|------------10------10---------|------------7-------7----------|
                                          I'll    let you     know


G|------- ------- ------- -------|------- ------- ------- -------|
D|9-----------------------7---9--|7------------------------------|
A|------------9-------9----------|------------7-------7---5------|
E|-------------------------------|-------------------------------|
          when    she's come  home,       un  -   til that    day,


G|------- ------- ------- -------|------- ------- ------- -------|
D|5-----------------------4------|5------------------------------|
A|------------5-------5----------|-------------------------------|
E|-------------------------------|-------------------------------|
                                          Don't   come a  -   round,


G|------- ------- ------- -------|------- ------- ------- -------|
D|-------------------------------|7-----------7---7--------------|
A|7-----------7---7--------------|-------------------------------|
E|-------------------------------|-------------------------------|
          leave   me  a   -   lone,       don't   bother      me


G|------- ------- ------- -------|------- ------- ------- -------|
D|-------------------------------|----------------9--------------|
A|7-----------7---7--------------|7-------7-----------7-------7--|
E|-------------------------------|-------------------------------|


Verse (half solo):
G|------- ------- ------- -------|------- ------- ------- -------|
D|9-------9---------------7---9--|7-------7---------------7------|
A|----------------9---9----------|----------------7---7----------|
E|-------------------------------|-------------------------------|



G|------- ------- ------- -------|------- ------- ------- -------|
D|-------------------------------|-------------------------------|
A|10----------------------10--8--|7-----------------------5-/-7--|
E|------------10------10---------|------------7-------7----------|



G|------- ------- ------- -------|------- ------- ------- -------|
D|9-----------------------7---9--|7-----------------------7------|
A|------------9-------9----------|------------7---7-----------7--|
E|-------------------------------|-------------------------------|



G|------- ------- ------- -------|------- ------- ------- -------|
D|5-----------------------4------|5------------------------------|
A|------------5------------------|-------------------------------|
E|-------------------------------|-------------------------------|
                                          I've    got no      time


G|------- ------- ------- -------|------- ------- ------- -------|
D|-------------------------------|7-----------7---7--------------|
A|7-----------7---7--------------|-------------------------------|
E|-------------------------------|-------------------------------|
              for you right   now,        don't   bother      me


G|------- ------- ------- -------|------- ------- ------- -------|
D|-------------------------------|-------------------------------|
A|7-----------7---7--------------|7-------7-------7-------7------|
E|-------------------------------|-------------------------------|
                                          I       know    I'll

Bridge:
G|------- ------- ------- -------|------- ------- ------- -------|
D|----------------4-----------4--|-------------------------------|
A|5------------------------------|7-----------5---5-------7------|
E|-------------------------------|-------------------------------|
  ne      -       ver             be              the


G|------- ------- ------- -------|------- ------- ------- -------|
D|-------------------------------|-------------------------------|
A|7-------7-------5-----------7--|5-----------7-------5----------|
E|--------------------7----------|--------7---------------7------|
  same,                                   if      I       don't


G|------- ------- ------- -------|------- ------- ------- -------|
D|----------------4---4----------|-------------------------------|
A|5-------5----------------------|7-------7-------5-------5------|
E|-------------------------------|-------------------------------|
  get             her             back            a    -      gain,


G|------- ------- ------- -------|------- ------- ------- -------|
D|-------------------------------|-------------------------------|
A|7---7-----------7---7----------|7-----------7---7-------7------|
E|------------7---------------7--|-------------------------------|
                                          Be  -   cause   I


G|------- ------- ------- -------|------- ------- ------- -------|
D|9-----------9---------------7--|9-----------------------9------|
A|----------------9--------------|------------9------------------|
E|-------------------------------|-------------------------------|
  know                    she'll  al        -         ways


G|------- ------- ------- -------|------- ------- ------- -------|
D|7-----------------------5------|7-----------------------7------|
A|------------7-------7----------|------------7-------7----------|
E|-------------------------------|-------------------------------|
  be                                                      the


G|------- ------- ------- -------|------- ------- ------- -------|
D|------------5-------5----------|------------5-------5----------|
A|-------------------------------|-------------------------------|
E|8-----------------------8------|8-----------------------8------|
  on             -        ly      girl                for


G|------- ------- ------- -------|------- ------- ------- -------|
D|-------------------------------|-------------------------------|
A|7-----------7-----------5------|7------------------------------|
E|--------------------7----------|-------------------------------|
  me                                      But     till she's  here,

Verse:
G|------- ------- ------- -------|------- ------- ------- -------|
D|9-----------9-------9----------|7------------------------------|
A|------------------------9------|------------7-------7----------|
E|-------------------------------|------------------------10-----|
          please, don't come  near,       just    stay a   -  way


G|------- ------- ------- -------|------- ------- ------- -------|
D|-------------------------------|-------------------------------|
A|10----------------------10--8--|7-----------------------7------|
E|------------10------10---------|------------7-------7----------|
                                          I'll    let you     know


G|------- ------- ------- -------|------- ------- ------- -------|
D|9-----------------------9------|7------------------------------|
A|------------9-------9----------|------------7-----------7------|
E|-------------------------------|-------------------------------|
          when    she's come  home,       un  -   til that    day,


G|------- ------- ------- -------|------- ------- ------- -------|
D|5-----------------------4------|5------------------------------|
A|------------5-------5----------|-------------------------------|
E|-------------------------------|-------------------------------|
                                          Don't   come a  -   round,


G|------- ------- ------- -------|------- ------- ------- -------|
D|-------------------------------|7-----------7---7--------------|
A|7-----------7---7--------------|-------------------------------|
E|-------------------------------|-------------------------------|
          leave   me  a   -   lone,       don't   bother      me


G|------- ------- ------- -------|------- ------- ------- -------|
D|-------------------------------|7-----------7---7--------------|
A|7-----------7---7--------------|-------------------------------|
E|-------------------------------|-------------------------------|
                                          Don't   bother      me

Outro:
G|------- ------- ------- -------|------- ------- ------- -------|
D|-------------------------------|7-----------7---7--------------|
A|7-----------7---7--------------|-------------------------------|
E|-------------------------------|-------------------------------|
                                          Don't   bother      me
repeat and fade...

Please e-mail me for any corrections.





Comments


Popular Beatles tabs & chords
Ask Me Why Bass Tabs
Being For The Benefit Of Mr Kite 2 Bass Tabs
A Day In The Life 2 Chords
A Hard Day's Night 1 Chords
All I've Got To Do Chords
All My Loving 5 Chords
From Me To You 1 Chords
Girl 3 Chords
Give Peace A Chance Chords
I Wanna Hold Your Hand Chords


Song lyrics



↑ Back to top | Tablatures and chords are parodies/interpretations of the original songs. You may use it for private study, scholarship, research or language learning purposes only
© 2014 AZChords.com Contact us | Privacy policy | DMCA | Add/correct tabs | Request tabs | Top 50 tabs