>
 >
Dizzy Miss Lizzy

Dizzy Miss Lizzy Guitar Tabs

Beatles - Dizzy Miss Lizzy chords, tabs, tablatures, lyrics

Guitar lessons | Add/correct | Request | Top 50 tabs Artists:  A B C D E F G H I J K L M N O P Q R S T U V W X Y Z 0-9

Dizzy Miss Lizzy Guitar Tabs – Beatles

CD, Sheet music, Poster

Do you like Dizzy Miss Lizzy? Share with your friends now
Bass TabsChordsChords v2TabsTabs v2Ukulele
    --------------------------------------------------------

    BEATLES - DIZZY MISS LIZZY (L Williams) From HELP album.
              Released on August, 6th, 1965.

    --------------------------------------------------------






    As you all know, the guitar riff is doubled the whole song 
    through. I have tabbed both tracks just when any differing 
    nuances were produced. Jonn can be seen playing DIZZY live 
    on his Rickenbacker at the Shea Stadium, surely he played 
    it on guitar at other venues too, but on the recording he 
    had played Hammond organ instead. In the verses George plays 
    almost in unison with the bass line, as well live as on the 
    recording, but the last uses the guitar riff more profusely.
    



    Owwww!
    You make me dizzy Miss Lizzy
    The way you rock'n'roll
    You make me dizzy Miss Lizzy
    When you do the stroll
    Come on Miss Lizzy
    love me 'fore I grow too old

    Come on give me fever
    Put your little hand in mine
    You make me dizzy dizzy Lizzy
    Oh girl you look so fine
    Just a-rockin' and a-rollin'
    Girl I said I wish you were mine

    Aaaahh! Owwww! Woo!

    You make me dizzy Miss Lizzy
    When you call my name
    Ooooh baby
    Say you're driving me insane
    Come on come on come on come on baby
    I want to be your loving man 

    Aaaahh! Ooh! Ooh! Owww!

    Run and tell your mama
    I want you to be my bride
    Run and tell your brother
    Baby don't run and hide
    You make me dizzy Miss Lizzy
    Girl I want to marry you

    Come on give me fever
    Put your little hand in mine girl
    You make me dizzy dizzy Lizzy
    Girl you look so fine
    You're just a-rockin' and a-rollin'
    Woo! I Said I wish you were mine



    INTRO
                           
  e|------- ------- ------- -------|------- ------- ------- -------|
  B|-------------------------------|----12--121313--131210--12-B14-|
  G|-------------------------------|----------B-------R------------|
  D|-------------------------------|-------------------------------|
  A|-------------------------------|-------------------------------|
  E|-------------------------------|-------------------------------|




    A7
  e|------- ------- ------- -------|------- ------- ------- -------|
  B|8-------8---8---8---8---8---8--|8-------8---8---8---8---8---8--|
  G|6-------6---6---6---6---6---6--|6-------6---6---6---6---6---6--|
  D|7-------7---7---7---7---7---7--|7-------7---7---7---7---7---7--|
  A|-------------------------------|-------------------------------|
  E|-------------------------------|-------------------------------|

  e|------- ------- ------- -------|------- ------- ------- -------|
  B|-------------------------------|-------------------------------|
  G|-------------------------------|-------------------------------|
  D|-------------------------------|-------------------------------|
  A|----------------7---7---9---7--|----------------7---7---9---7--|
  E|5---5---8---9------------------|5---5---8---9------------------|

  e|------- ------- ------- -------|------- ------- ------- -------|
  B|10-~---------------------------|----12--121313--131210--12-B14-|
  G|-------------------------------|----------B-------R------------|
  D|-------------------------------|-------------------------------|
  A|-------------------------------|-------------------------------|
  E|-------------------------------|-------------------------------|





  e|------- ------- ------- -------|------- ------- ------- -------|
  B|8-------8---8---8---8---8---8--|8-------8---8---8---8---8---8--|
  G|6-------6---6---6---6---6---6--|6-------6---6---6---6---6---6--|
  D|7-------7---7---7---7---7---7--|7-------7---7---7---7---7---7--|
  A|-------------------------------|-------------------------------|
  E|-------------------------------|-------------------------------|

  e|------- ------- ------- -------|------- ------- ------- -------|
  B|-------------------------------|-------------------------------|
  G|-------------------------------|-------------------------------|
  D|-------------------------------|-------------------------------|
  A|----------------7---7---9---7--|----------------7---7---9---7--|
  E|5---5---8---9------------------|5---5---8---9------------------|

  e|------- ------- ------- -------|------- ------- ------- -------|
  B|10-~---------------------------|----12--121313--131210--12-B14-|
  G|-------------------------------|----------B-------R------------|
  D|-------------------------------|-------------------------------|
  A|-------------------------------|-------------------------------|
  E|-------------------------------|-------------------------------|




    00:08
    D7
  e|8---8-- 8---8-- 8---8-- 8---8--|8------ 8---8-- 8---8-- 8---8--|
  B|7---7---7---7---7---7---7---7--|7-------7---7---7---7---7---7--|
  G|7---7---7---7---7---7---7---7--|7-------7---7---7---7---7---7--|
  D|-------------------------------|-------------------------------|
  A|-------------------------------|-------------------------------|
  E|-------------------------------|-------------------------------|

  e|------- ------- ------- -------|------- ------- ------- -------|
  B|-------------------------------|-------------------------------|
  G|-------------------------------|-------------------------------|
  D|----------------7---7---9---7--|----------------7---7---9---7--|
  A|5---5---8---9------------------|5---5---8---9------------------|
  E|-------------------------------|-------------------------------|

  e|------- ------- ------- -------|------- ------- ------- -------| 
  B|10-~---------------------------|----12--121313--131210--12-B13-|
  G|-------------------------------|----------B-------R------------|
  D|-------------------------------|-------------------------------|
  A|-------------------------------|-------------------------------|
  E|-------------------------------|-------------------------------|




    A7
  e|------- ------- ------- -------|------- ------- ------- -------|
  B|8-------8---8---8---8---8---8--|8-------8-------8---8---8---8--|
  G|6-------6---6---6---6---6---6--|6-------6-------6---6---6---6--|
  D|7-------7---7---7---7---7---7--|7-------7-------7---7---7---7--|
  A|-------------------------------|-------------------------------|
  E|-------------------------------|-------------------------------|

  e|------- ------- ------- -------|------- ------- ------- -------|
  B|-------------------------------|-------------------------------|
  G|-------------------------------|-------------------------------|
  D|-------------------------------|-------------------------------|
  A|----------------7---7---9---7--|----------------7---7---9---7--|
  E|5---5---8---9------------------|5---5---8---9------------------|

  e|------- ------- ------- -------|------- ------- ------- -------|
  B|10-~---------------------------|----12--121313--131210--12-B14-|
  G|-------------------------------|----------B-------R------------|
  D|-------------------------------|-------------------------------|
  A|-------------------------------|-------------------------------|
  E|-------------------------------|-------------------------------|
    Owwww!


    00:15
    E7                              D7
  e10--10--10--10--10--10--10--10--|8---8-- 8---8-- 8---8-- 8---8--|
  B|9---9---9---9---9---9---9---9--|7---7---7---7---7---7---7---7--|
  G|9---9---9---9---9---9---9---9--|7---7---7---7---7---7---7---7--|
  D|-------------------------------|-------------------------------|
  A|-------------------------------|-------------------------------|
  E|-------------------------------|-------------------------------|

  e|------- ------- ------- -------|------- ------- ------- -------|
  B|-------------------------------|-------------------------------|
  G|-------------------------------|-------------------------------|
  D|----------------9---9---11--9--|----------------7---7---9---7--|
  A|7---7---10--11-----------------|5---5---8---9------------------|
  E|-------------------------------|-------------------------------|

  e|------- ------- ------- -------|------- ------- ------- -------|
  B|12-~---------------------------|----12--121313--131210--12-B14-|
  G|-------------------------------|----------B-------R------------|
  D|-------------------------------|-------------------------------|
  A|-------------------------------|-------------------------------|
  E|-------------------------------|-------------------------------|




    A7                                  E7
  e|------- ------- ------- -------|---10--10--10--10--10-- 10-\---| 
  B|8---8---8-------8---8---8---8--|----9---9---9---9---9----9-\---|
  G|6---6---6-------6---6---6---6--|----9---9---9---9---9----9-\---|
  D|7---7---7-------7---7---7---7--|-------------------------------|
  A|-------------------------------|-------------------------------|
  E|-------------------------------|-------------------------------|

  e|------- ------- ------- -------|------- ------- ------- -------| 
  B|-------------------------------|5-------5---5---5---5---5------|
  G|-------------------------------|7-------7---7---7---7---7------|
  D|-------------------------------|6-------6---6---6---6---6------|
  A|----------------7---7---9---7--|7-------7---7---7---7---7------|
  E|5---5---8---9------------------|-------------------------------|

  e|------- ------- ------- -------|------- ------- ------- -------|
  B|10-~---------------------------|-------------------------------|
  G|-------------------------------|-------------------------------|
  D|-------------------------------|-------------------------------|
  A|-------------------------------|-------------------------------|
  E|-------------------------------|-------------------------------|
                                        You make    dizzy   Miss
                                                me
    VERSE
    00:22                                                           

  e|------- ------- ------- -------|------- ------- ------- -------|
  B|8-------8---8---8---8---8---8--|8---8---8---8---8---8---8---8--|
  G|6-------6---6---6---6---6---6--|6---6---6---6---6---6---6---6--|
  D|7-------7---7---7---7---7---7--|7---7---7---7---7---7---7---7--|
  A|-------------------------------|-------------------------------|
  E|-------------------------------|-------------------------------|

  e|------- ------- ------- -------|------- ------- ------- -------|
  B|-------------------------------|-------------------------------|
  G|-------------------------------|-------------------------------|
  D|-------------------------------|-------------------------------|
  A|----------------7---7---9---7--|----------------7---7---9---7--|
  E|5-------8---9------------------|----5---8---9------------------|

  e|------- ------- ------- -------|------- ------- ------- -------|
  B|--------121313--131210--12-B13-|10-~---------------------------|
  G|----------B-------R------------|-------------------------------|
  D|-------------------------------|-------------------------------|
  A|-------------------------------|-------------------------------|
  E|-------------------------------|-------------------------------|
    Lizzy                               The way you rock        roll
                                                        and



  e|------- ------- ------- -------|------- ------- ------- -------|
  B|8---8---8---8---8---8---8---8--|8---8---8---8---8---8---8---8--|
  G|6---6---6---6---6---6---6---6--|6---6---6---6---6---6---6---6--|
  D|7---7---7---7---7---7---7---7--|7---7---7---7---7---7---7---7--|
  A|-------------------------------|-------------------------------|
  E|-------------------------------|-------------------------------|

  e|------- ------- ------- -------|------- ------- ------- -------|
  B|-------------------------------|-------------------------------|
  G|-------------------------------|-------------------------------|
  D|-------------------------------|-------------------------------|
  A|----------------7---7---9---7--|----------------7---7---9---7--|
  E|5-------8---9------------------|5---5---8---9------------------|

  e|------- ------- ------- -------|------- ------- ------- -------|
  B|----12--121313--131210--12-B13-|10-~---------------------------|
  G|----------B-------R------------|-------------------------------|
  D|-------------------------------|-------------------------------|
  A|-------------------------------|-------------------------------|
  E|-------------------------------|-------------------------------|

  e|------- ------- ------- -------|------- ------- ------- -------|
  B|--------121313--131210--12-B13-|10-~---------------------------|
  G|----------B-------R------------|-------------------------------|
  D|-------------------------------|-------------------------------|
  A|-------------------------------|-------------------------------|
  E|-------------------------------|-------------------------------|
                                        You make    dizzy   Miss
                                                me



  e|8---8-- 8---8-- 8---8-- 8---8--|8---8-- 8---8-- 8---8-- 8---8--|
  B|7---7---7---7---7---7---7---7--|7---7---7---7---7---7---7---7--|
  G|7---7---7---7---7---7---7---7--|7---7---7---7---7---7---7---7--|
  D|-------------------------------|-------------------------------|
  A|-------------------------------|-------------------------------|
  E|-------------------------------|-------------------------------|

  e|------- ------- ------- -------|------- ------- ------- -------|
  B|-------------------------------|-------------------------------|
  G|-------------------------------|-------------------------------|
  D|----------------7---7---9---7--|----------------7---7---9---7--|
  A|5---5---8---9------------------|5---5---8---9------------------|
  E|-------------------------------|-------------------------------|

  e|------- ------- ------- -------|------- ------- ------- -------|
  B|----12--121313--131210--12-B13-|10-~---------------------------|
  G|----------B-------R------------|-------------------------------|
  D|-------------------------------|-------------------------------|
  A|-------------------------------|-------------------------------|
  E|-------------------------------|-------------------------------|
    Lizzy                                   When    do      the stroll
                                                you



  e|------- ------- ------- -------|------- ------- ------- -------|
  B|8---8---8---8---8-------8------|8---8---8---8---8---8---8------|
  G|6---6---6---6---6-------6------|6---6---6---6---6---6---6------|
  D|7---7---7---7---7-------7------|7---7---7---7---7---7---7------|
  A|-------------------------------|-------------------------------|
  E|-------------------------------|-------------------------------|

  e|------- ------- ------- -------|------- ------- ------- -------|
  B|-------------------------------|-------------------------------|
  G|-------------------------------|-------------------------------|
  D|-------------------------------|-------------------------------|
  A|----------------7---7---9---7--|----------------7---7---9---7--|
  E|5-------8---9------------------|5---5---8---9------------------|

  e|------- ------- ------- -------|------- ------- ------- -------|
  B|----12--121313--131210--12-B13-|10-~---------------------------|
  G|----------B-------R------------|-------------------------------|
  D|-------------------------------|-------------------------------|
  A|-------------------------------|-------------------------------|
  E|-------------------------------|-------------------------------|

  e|------- ------- ------- -------|------- ------- ------- -------|
  B|----1213----13--131210--12-B13-|10-~---------------------------|
  G|------B---B-------R------------|-------------------------------|
  D|-------------------------------|-------------------------------|
  A|-------------------------------|-------------------------------|
  E|-------------------------------|-------------------------------|
                                            Come                Miss 
                                                on



  e10--10--10--10--10--10--10--10--|8---8-- 8---8-- 8---8-- 8---8--|
  B|9---9---9---9---9---9---9---9--|7---7---7---7---7---7---7---7--|
  G|9---9---9---9---9---9---9---9--|7---7---7---7---7---7---7---7--|
  D|-------------------------------|-------------------------------|
  A|-------------------------------|-------------------------------|
  E|-------------------------------|-------------------------------|

  e|------- ------- ------- -------|------- ------- ------- -------|
  B|-------------------------------|-------------------------------|
  G|-------------------------------|-------------------------------|
  D|-------------------------------|----------------7---7---9---7--|
  A|----------------2---2---4---2--|----5---8---9------------------|
  E|----0---3---4------------------|-------------------------------|

  e|------- ------- ------- -------|------- ------- ------- -------|
  B|--------121313--131210--12-B13-|10-~---------------------------|
  G|----------B-------R------------|-------------------------------|
  D|-------------------------------|-------------------------------|
  A|-------------------------------|-------------------------------|
  E|-------------------------------|-------------------------------|
    Lizzy                           love   'fore        grow    too 
                                        me      I



  e|------- ------- ------- -------|---10--10--10--10--10--10--10--| 
  B|8---8---8---8---8---8---8---8--|----9---9---9---9---9---9---9--|
  G|6---6---6---6---6---6---6---6--|----9---9---9---9---9---9---9--|
  D|7---7---7---7---7---7---7---7--|-------------------------------|
  A|-------------------------------|-------------------------------|
  E|-------------------------------|-------------------------------|

  e|------- ------- ------- -------|------- ------- ------- -------| 
  B|-------------------------------|----5---5---5---5---5---5------|
  G|-------------------------------|----7---7---7---7---7---7------|
  D|-------------------------------|----6---6---6---6---6---6------|
  A|----------------7---7---9---7--|----7---7---7---7---7---7------|
  E|5-------8---9------------------|-------------------------------|

  e|------- ------- ------- -------|------- ------- ------- -------|
  B|----12--121313--131210--12-B14-|10-~---------------------------|
  G|----------B-------R------------|-------------------------------|
  D|-------------------------------|-------------------------------|
  A|-------------------------------|-------------------------------|
  E|-------------------------------|-------------------------------|

  e|------- ------- ------- -------|------- ------- ------- -------|
  B|--------121313--131210--12-B14-|10-~---------------------------|
  G|----------B-------R------------|-------------------------------|
  D|-------------------------------|-------------------------------|
  A|-------------------------------|-------------------------------|
  E|-------------------------------|-------------------------------|
    old                                     Come            give
                                                on              me

    VERSE
    00:43                                                      

  e|------- ------- ------- -------|------- ------- ------- -------|
  B|8---8---8---8---8---8---8---8--|8---8---8---8---8---8---8---8--|
  G|6---6---6---6---6---6---6---6--|6---6---6---6---6---6---6---6--|
  D|7---7---7---7---7---7---7---7--|7---7---7---7---7---7---7---7--|
  A|-------------------------------|-------------------------------|
  E|-------------------------------|-------------------------------|

  e|------- ------- ------- -------|------- ------- ------- -------|
  B|-------------------------------|-------------------------------|
  G|-------------------------------|-------------------------------|
  D|-------------------------------|-------------------------------|
  A|----------------7-------9---7--|----------------7---7---9---7--|
  E|5-------9----------------------|5-------8---9------------------|

  e|------- ------- ------- -------|------- ------- ------- -------|
  B|--------121313--131210--12-B13-|10-~---------------------------|
  G|----------B-------R------------|-------------------------------|
  D|-------------------------------|-------------------------------|
  A|-------------------------------|-------------------------------|
  E|-------------------------------|-------------------------------|
    fever                                   Put your    hand    mine
                                                    little  in



  e|------- ------- ------- -------|------- ------- ------- -------|
  B|8---8---8---8---8---8---8---8--|8---8---8---8---8---8---8---8--|
  G|6---6---6---6---6---6---6---6--|6---6---6---6---6---6---6---6--|
  D|7---7---7---7---7---7---7---7--|7---7---7---7---7---7---7---7--|
  A|-------------------------------|-------------------------------|
  E|-------------------------------|-------------------------------|

  e|------- ------- ------- -------|------- ------- ------- -------|
  B|-------------------------------|-------------------------------|
  G|-------------------------------|-------------------------------|
  D|-------------------------------|-------------------------------|
  A|----------------7---7---9---7--|----------------7---7---9---7--|
  E|5-------8---9------------------|5---5---8---9------------------|

  e|------- ------- ------- -------|------- ------- ------- -------|
  B|----12--121313--131210--12-B13-|10-~---------------------------|
  G|----------B-------R------------|-------------------------------|
  D|-------------------------------|-------------------------------|
  A|-------------------------------|-------------------------------|
  E|-------------------------------|-------------------------------|
                                        You make    dizzy   dizzy 
                                                me



  e|8---8-- 8---8-- 8---8-- 8---8--|8---8-- 8---8-- 8---8-- 8---8--|
  B|7---7---7---7---7---7---7---7--|7---7---7---7---7---7---7---7--|
  G|7---7---7---7---7---7---7---7--|7---7---7---7---7---7---7---7--|
  D|-------------------------------|-------------------------------|
  A|-------------------------------|-------------------------------|
  E|-------------------------------|-------------------------------|

  e|------- ------- ------- -------|------- ------- ------- -------|
  B|-------------------------------|-------------------------------|
  G|-------------------------------|-------------------------------|
  D|----------------7---7---9---7--|----------------7---7---9---7--|
  A|5---5---8---9------------------|5---5---8---9------------------|
  E|-------------------------------|-------------------------------|

  e|------- ------- ------- -------|------- ------- ------- -------|
  B|----12--121313--131210--12-B13-|10-~---------------------------|
  G|----------B-------R------------|-------------------------------|
  D|-------------------------------|-------------------------------|
  A|-------------------------------|-------------------------------|
  E|-------------------------------|-------------------------------|

  e|------- ------- ------- -------|------- ------- ------- -------|
  B|--------121313--131210--12-B13-|10-~---------------------------|
  G|----------B-------R------------|-------------------------------|
  D|-------------------------------|-------------------------------|
  A|-------------------------------|-------------------------------|
  E|-------------------------------|-------------------------------|
    Lizzy                               Oh      girl    you look 
                                                                so



  e|------- ------- ------- -------|------- ------- ------- -------|
  B|8-------8---8---8---8---8---8--|8---8---8---8---8---8---8---8--|
  G|6-------6---6---6---6---6---6--|6---6---6---6---6---6---6---6--|
  D|7-------7---7---7---7---7---7--|7---7---7---7---7---7---7---7--|
  A|-------------------------------|-------------------------------|
  E|-------------------------------|-------------------------------|

  e|------- ------- ------- -------|------- ------- ------- -------|
  B|-------------------------------|-------------------------------|
  G|-------------------------------|-------------------------------|
  D|-------------------------------|-------------------------------|
  A|----------------7---7---9---7--|----------------7---7---9---7--|
  E|5-------8---9------------------|5---5---8---9------------------|

  e|------- ------- ------- -------|------- ------- ------- -------|
  B|----12--121313--131210--12-B13-|10-~---------------------------|
  G|----------B-------R------------|-------------------------------|
  D|-------------------------------|-------------------------------|
  A|-------------------------------|-------------------------------|
  E|-------------------------------|-------------------------------|
    fine                                    Just    rockin' and a
                                                a



  e10--10--10--10-- ---10--10--10--|8---8-- 8---8-- 8---8-- 8---8--|
  B|9---9---9---9-------9---9---9--|7---7---7---7---7---7---7---7--|
  G|9---9---9---9-------9---9---9--|7---7---7---7---7---7---7---7--|
  D|-------------------------------|-------------------------------|
  A|-------------------------------|-------------------------------|
  E|-------------------------------|-------------------------------|

  e|------- ------- ------- -------|------- ------- ------- -------|
  B|-------------------------------|-------------------------------|
  G|-------------------------------|-------------------------------|
  D|----------------9---9---11--9--|----------------7---7---9---7--|
  A|7-------10--11-----------------|5-------8---9------------------|
  E|-------------------------------|-------------------------------|

  e|------- ------- ------- -------|------- ------- ------- -------|
  B|----12--121313--131210--12-B13-|10-~---------------------------|
  G|----------B-------R------------|-------------------------------|
  D|-------------------------------|-------------------------------|
  A|-------------------------------|-------------------------------|
  E|-------------------------------|-------------------------------|

  e|------- ------- ------- -------|------- ------- ------- -------|
  B|--------121313--131210--12-B13-|10-~---------------------------|
  G|----------B-------R------------|-------------------------------|
  D|-------------------------------|-------------------------------|
  A|-------------------------------|-------------------------------|
  E|-------------------------------|-------------------------------|
    rollin'                         Girl    said    wish    were 
                                        I       I       you     mine



  e|------- ------- ------- -------|---10--10--10--10------ 10-----| 
  B|8---8---8---8---8---8---8---8--|----9---9---9---9--------9-----|
  G|6---6---6---6---6---6---6---6--|----9---9---9---9--------9-----|
  D|7---7---7---7---7---7---7---7--|-------------------------------|
  A|-------------------------------|-------------------------------|
  E|-------------------------------|-------------------------------|

  e|------- ------- ------- -------|------- ------- ------- -------| 
  B|-------------------------------|----5---5---5---5---5---5------|
  G|-------------------------------|----7---7---7---7---7---7------|
  D|-------------------------------|----6---6---6---6---6---6------|
  A|----------------7---7---9---7--|----7---7---7---7---7---7------|
  E|5---5---8---9------------------|-------------------------------| 

  e|------- ------- ------- -------|------- ------- ------- -------|
  B|-------------------------------|----12--121313--1312----12-B14-|
  G|-------------------------------|----------B-------R------------|
  D|-------------------------------|-------------------------------|
  A|-------------------------------|-------------------------------|
  E|-------------------------------|-------------------------------|
                                        Aaaaaaaaaaaaaaaaawwww!


    INSTRUMENTAL BREAK
    01:04 ............  
  
 
    01:22

  e|------- ------- ------- ---10--|---10--10--10--10--10-- 10-----| 
  B|8---8---8---8---8---8---8---9--|----9---9---9---9---9----9-----|
  G|6---6---6---6---6---6---6---9--|----9---9---9---9---9----9-----|
  D|7---7---7---7---7---7---7------|-------------------------------|
  A|-------------------------------|-------------------------------|
  E|-------------------------------|-------------------------------|

  e|------- ------- ------- -------|------- ------- ------- -------| 
  B|-------------------------------|5-------5---5---5---5---5------|
  G|-------------------------------|7-------7---7---7---7---7------|
  D|-------------------------------|6-------6---6---6---6---6------|
  A|----------------7---7---9------|7-------7---7---7---7---7------|
  E|5---5---8---9---------------9--|-------------------------------| 

  e|------- ------- ------- -------|10----- ------- ------- -------|
  B|10-~---------------------------|--13\12---------10-------------|
  G|-------------------------------|-------------------------------|
  D|-------------------------------|-------------------1213--------|
  A|-------------------------------|---------------------B---------|
  E|-------------------------------|-------------------------------|
                                        You make   dizzy    Miss 
                                                me              Lizzy
    VERSE
    01:25                                                           

  e|------- ------- ------- -------|------- ------- ------- -------|
  B|8---8---8---8---8---8---8---8--|8---8---8---8---8---8---8---8--|
  G|6---6---6---6---6---6---6---6--|6---6---6---6---6---6---6---6--|
  D|7---7---7---7---7---7---7---7--|7---7---7---7---7---7---7---7--|
  A|-------------------------------|-------------------------------|
  E|-------------------------------|-------------------------------|

  e|------- ------- ------- -------|------- ------- ------- -------|
  B|-------------------------------|-------------------------------|
  G|-------------------------------|-------------------------------|
  D|-------------------------------|-------------------------------|
  A|----------------7-------9---7--|----------------7---7---9---7--|
  E|5-------9----------------------|5-------8---9------------------|

  e|------- ------- ------- -------|------- ------- ------- -------|
  B|-------------------------------|-------------------------------|
  G|-------------------------------|-------------------------------|
  D|10-----------------------------|-------------------------------|
  A|----------------12-------------|-------------------------------|
  E|-------------------------------|-------------------------------|

  e|------- ------- ------- -------|------- ------- ------- -------|
  B|-------------------------------|----12-B13--13--131210--12-B14-|
  G|-------------------------------|------------------R------------|
  D|-------------------------------|-------------------------------|
  A|-------------------------------|-------------------------------|
  E|-------------------------------|-------------------------------|
                                            When    call        name
                                                you     my



  e|------- ------- ------- -------|------- ------- ------- -------|
  B|8---8---8---8---8---8---8---8--|8---8---8---8---8---8---8---8--|
  G|6---6---6---6---6---6---6---6--|6---6---6---6---6---6---6---6--|
  D|7---7---7---7---7---7---7---7--|7---7---7---7---7---7---7---7--|
  A|-------------------------------|-------------------------------|
  E|-------------------------------|-------------------------------|

  e|------- ------- ------- -------|------- ------- ------- -------|
  B|-------------------------------|-------------------------------|
  G|-------------------------------|-------------------------------|
  D|-------------------------------|-------------------------------|
  A|----------------7---7---9---7--|----------------7---7---9---7--|
  E|5-------8---9------------------|5---5---8---9------------------|

  e|------- ------- ------- -------|------- ------- ------- -------|
  B|10-~---------------------------|-------------------------------|
  G|-------------------------------|-------------------------------|
  D|-------------------------------|-------------------------------|
  A|-------------------------------|-------------------------------|
  E|-------------------------------|-------------------------------|

  e|------- ------- ------- -------|------- ------- ------- -------|
  B|----12--121313--131210--12-B13-|10-~---------------------------|
  G|----------B-------R------------|-------------------------------|
  D|-------------------------------|-------------------------------|
  A|-------------------------------|-------------------------------|
  E|-------------------------------|-------------------------------|
                                            Ooooooooooooooohh   baby




  e|8---8-- 8---8-- 8---8-- 8---8--|8---8-- 8---8-- 8---8-- 8---8--|
  B|7---7---7---7---7---7---7---7--|7---7---7---7---7---7---7---7--|
  G|7---7---7---7---7---7---7---7--|7---7---7---7---7---7---7---7--|
  D|-------------------------------|-------------------------------|
  A|-------------------------------|-------------------------------|
  E|-------------------------------|-------------------------------|

  e|------- ------- ------- -------|------- ------- ------- -------|
  B|-------------------------------|-------------------------------|
  G|-------------------------------|-------------------------------|
  D|----------------7---7---9---7--|----------------7---7---9---7--|
  A|5---5---8---9------------------|5---5---8---9------------------|
  E|-------------------------------|-------------------------------|

  e|------- ------- ------- -------|------- ------- ------- -------|
  B|--------121313--131210--12-B13-|10-~---------------------------|
  G|----------B-------R------------|-------------------------------|
  D|-------------------------------|-------------------------------|
  A|-------------------------------|-------------------------------|
  E|-------------------------------|-------------------------------|
                                    Say you're      me      insane
                                            driving



  e|------- ------- ------- -------|------- ------- ------- -------|
  B|8-------8---8---8---8---8---8--|8---8---8---8---8---8---8---8--|
  G|6-------6---6---6---6---6---6--|6---6---6---6---6---6---6---6--|
  D|7-------7---7---7---7---7---7--|7---7---7---7---7---7---7---7--|
  A|-------------------------------|-------------------------------|
  E|-------------------------------|-------------------------------|

  e|------- ------- ------- -------|------- ------- ------- -------|
  B|-------------------------------|-------------------------------|
  G|-------------------------------|-------------------------------|
  D|-------------------------------|-------------------------------|
  A|----------------7---7---9---7--|----------------7---7---9---7--|
  E|5-------8---9------------------|5---5---8---9------------------|

  e|------- ------- ------- -------|------- ------- ------- -------|
  B|----12--121313--131210--12-B13-|10-~---------------------------|
  G|----------B-------R------------|-------------------------------|
  D|-------------------------------|-------------------------------|
  A|-------------------------------|-------------------------------|
  E|-------------------------------|-------------------------------|

  e|------- ------- ------- -------|------- ------- ------- -------|
  B|--------121313--131210--12-B13-|10-~---------------------------|
  G|----------B-------R------------|-------------------------------|
  D|-------------------------------|-------------------------------|
  A|-------------------------------|-------------------------------|
  E|-------------------------------|-------------------------------|
                                        Come    come    come    come 
                                          on      on      on      on



  e10--10--10--10-- ---10--10--10--|8---8-- 8---8-- 8---8-- 8---8--|
  B|9---9---9---9-------9---9---9--|7---7---7---7---7---7---7---7--|
  G|9---9---9---9-------9---9---9--|7---7---7---7---7---7---7---7--|
  D|-------------------------------|-------------------------------|
  A|-------------------------------|-------------------------------|
  E|-------------------------------|-------------------------------|

  e|------- ------- ------- -------|------- ------- ------- -------|
  B|-------------------------------|-------------------------------|
  G|-------------------------------|-------------------------------|
  D|----------------9---9---11--9--|----------------7---7---9---7--|
  A|7-------10--11-----------------|5-------8---9------------------|
  E|-------------------------------|-------------------------------|

  e|------- ------- ------- -------|------- ------- ------- -------|
  B|----12--121313--131210--12-B13-|10-~---------------------------|
  G|----------B-------R------------|-------------------------------|
  D|-------------------------------|-------------------------------|
  A|-------------------------------|-------------------------------|
  E|-------------------------------|-------------------------------|

  e|------- ------- ------- -------|------- ------- ------- -------|
  B|--------121313--131210--12-B13-|12-~---------------------------|
  G|----------B-------R------------|-------------------------------|
  D|-------------------------------|-------------------------------|
  A|-------------------------------|-------------------------------|
  E|-------------------------------|-------------------------------|
    baby                        I   want    be  your            man 
                                        to          loving



  e|------- ------- ------- -------|---10--10--10--10------10------| 
  B|8---8---8---8---8---8---8---8--|----9---9---9---9-------9------|
  G|6---6---6---6---6---6---6---6--|----9---9---9---9-------9------|
  D|7---7---7---7---7---7---7---7--|-------------------------------|
  A|-------------------------------|-------------------------------|
  E|-------------------------------|-------------------------------|

  e|------- ------- ------- -------|------- ------- ------- -------| 
  B|-------------------------------|----5---5---5---5---5---5------|
  G|-------------------------------|----7---7---7---7---7---7------|
  D|-------------------------------|----6---6---6---6---6---6------|
  A|----------------7---7---9---7--|----7---7---7---7---7---7------|
  E|5---5---8---9------------------|-------------------------------|

  e|------- ------- ------- -------|------- ------- ------- -------|
  B|----12--121313--131210--12-B13-|----12--121313--1312----12-B14-|
  G|----------B-------R------------|----------B-------R------------|
  D|-------------------------------|-------------------------------|
  A|-------------------------------|-------------------------------|
  E|-------------------------------|-------------------------------| 

  e|------- ------- ------- -------|------- ------- ------- -------|
  B|--------121313-131210----------|----12--121313--1312----12-B14-|
  G|----------B------R-------------|----------B-------R------------|
  D|-------------------------------|-------------------------------|
  A|-------------------------------|-------------------------------|
  E|-------------------------------|-------------------------------|
                                        Aaaaaaaaaaaaaaaaaawwww!


    INSTRUMENTAL BREAK
    01:46

  e|------- ------- ------- -------|------- ------- ------- -------|
  B|10-~---------------------------|----12--121313--131210--12-B14-|
  G|-------------------------------|----------B-------R------------|
  D|-------------------------------|-------------------------------|
  A|-------------------------------|-------------------------------|
  E|-------------------------------|-------------------------------|

  e|------- ------- ------- -------|------- ------- ------- -------|
  B|-----10-~----------------------|----12-B13--13--131210--12-B14-|
  G|-------------------------------|-------------------------------|
  D|-------------------------------|-------------------------------|
  A|-------------------------------|-------------------------------|
  E|-------------------------------|-------------------------------|  ....



    02:04

  e|------- ------- ------- -------10--10--10--10--10--10--10-\----| 
  B|8---8---8---8---8---8---8---8--|9---9---9---9---9---9---9-\----|
  G|6---6---6---6---6---6---6---6--|9---9---9---9---9---9---9-\----|
  D|7---7---7---7---7---7---7---7--|-------------------------------|
  A|-------------------------------|-------------------------------|
  E|-------------------------------|-------------------------------|

  e|------- ------- ------- -------|------- ------- ------- -------| 
  B|----------------------------5--|----5---5---5---5---5---5------|
  G|----------------------------7--|----7---7---7---7---7---7------|
  D|----------------------------6--|----6---6---6---6---6---6------|
  A|----------------7---7---9---7--|----7---7---7---7---7---7------|
  E|5---5---8---9------------------|-------------------------------|

  e|-----10 ------- ------- -------|------- ------- ------- -------|
  B|10---------13-\-12------10-----|-------------------------------|
  G|-------------------------------|-------------------------------|
  D|---------------------------12B13---R12-------------------------|
  A|-------------------------------|-------------------------------|
  E|-------------------------------|-------------------------------|

  e|------- 10----- ------- -------|------- ------- ------- -------|
  B|10--------13\12---------10-----|-------------------------------|
  G|-------------------------------|-------------------------------|
  D|---------------------------12B14---R12-------------------------|
  A|-------------------------------|-------------------------------|
  E|-------------------------------|-------------------------------|
                                    Run and tell    your 
                                                        mama

    VERSE
    02:07
 
    I want you to be my bride
    Run and tell your brother
    Baby don't run and hide
    You make me dizzy Miss Lizzy
    Girl I want to marry you

    Come on give me ...

    VERSE
    02:29                                                         

  e|------- ------- ------- -------|------- ------- ------- -------|
  B|--------8-------8---8---8---8--|8---8---8-------8---8---8------|
  G|--------6-------6---6---6---6--|6---6---6-------6---6---6------|
  D|--------7-------7---7---7---7--|7---7---7-------7---7---7------|
  A|-------------------------------|-------------------------------|
  E|-------------------------------|-------------------------------|

  e|------- ------- ------- -------|------- ------- ------- -------|
  B|-------------------------------|-------------------------------|
  G|-------------------------------|-------------------------------|
  D|-------------------------------|-------------------------------|
  A|----------------7---7---9---7--|----------------7---7---9---7--|
  E|5-------9---5------------------|5---5---9----------------------|

  e|------- ------- ------- -------|------- ------- ------- -------|
  B|--------121313--131210--12-B13-|10-~---------------------------|
  G|----------B-------R------------|-------------------------------|
  D|-------------------------------|-------------------------------|
  A|-------------------------------|-------------------------------|
  E|-------------------------------|-------------------------------|
    fever                                   Put your    hand    mine
                                                    little  in



  e|------- ------- ------- -------|------- ------- ------- -------|
  B|8---8---8-------8---8---8---8--|8---8---8---8---8---8---8---8--|
  G|6---6---6-------6---6---6---6--|6---6---6---6---6---6---6---6--|
  D|7---7---7-------7---7---7---7--|7---7---7---7---7---7---7---7--|
  A|-------------------------------|-------------------------------|
  E|-------------------------------|-------------------------------|

  e|------- ------- ------- -------|------- ------- ------- -------|
  B|-------------------------------|-------------------------------|
  G|-------------------------------|-------------------------------|
  D|-------------------------------|-------------------------------|
  A|----------------7---7---9---7--|----------------7---7---9---7--|
  E|5-------9---5------------------|5---5---9----------------------|

  e|------- ------- ------- -------|------- ------- ------- -------|
  B|----12--121313--131210--12-B13-|10-~---------------------------|
  G|----------B-------R------------|-------------------------------|
  D|-------------------------------|-------------------------------|
  A|-------------------------------|-------------------------------|
  E|-------------------------------|-------------------------------|
                                        You make    dizzy   dizzy 
                                                me



  e|8---8-- 8---8-- 8-8-8-- 8-8-8--|8-8-8-- 8-8-8-- 8---8-- 8-\----|
  B|7---7---7---7---7-7-7---7-7-7--|7-7-7---7-7-7---7---7---7-\----|
  G|7---7---7---7---7-7-7---7-7-7--|7-7-7---7-7-7---7---7---7-\----|
  D|-------------------------------|-------------------------------|
  A|-------------------------------|-------------------------------|
  E|-------------------------------|-------------------------------|

  e|------- ------- ------- -------|------- ------- ------- -------|
  B|-------------------------------|-------------------------------|
  G|-------------------------------|-------------------------------|
  D|----------------7---7---9---7--|----------------7---7---9---7--|
  A|5---5---9---9------------------|5---5---9---5------------------|
  E|-------------------------------|-------------------------------|

  e|------- ------- ------- -------|------- ------- ------- -------|
  B|----12--121313--131210--12-B13-|10-~---------------------------|
  G|----------B-------R------------|-------------------------------|
  D|-------------------------------|-------------------------------|
  A|-------------------------------|-------------------------------|
  E|-------------------------------|-------------------------------|

  e|------- ------- ------- -------|------- ------- ------- -------|
  B|--------121313--131210--12-B13-|10-~---------------------------|
  G|----------B-------R------------|-------------------------------|
  D|-------------------------------|-------------------------------|
  A|-------------------------------|-------------------------------|
  E|-------------------------------|-------------------------------|
    Lizzy                               Girl    you look        fine
                                                        so        



  e|------- ------- ------- -------|------- ------- ------- -------|
  B|--------8---8---8-8-8---8-8-8--|8---8---8---8---8---8---8---8--|
  G|--------6---6---6-6-6---6-6-6--|6---6---6---6---6---6---6---6--|
  D|--------7---7---7-7-7---7-7-7--|7---7---7---7---7---7---7---7--|
  A|-------------------------------|-------------------------------|
  E|-------------------------------|-------------------------------|

  e|------- ------- ------- -------|------- ------- ------- -------|
  B|-------------------------------|-------------------------------|
  G|-------------------------------|-------------------------------|
  D|-------------------------------|-------------------------------|
  A|----------------7---7---9---7--|----------------7---7---9---5--|
  E|5-------9---5------------------|5---5---9----------------------|

  e|------- ------- ------- -------|------- ------- ------- -------|
  B|----1213----x---131210--12-B13-|10-~---------------------------|
  G|------B-----------R------------|-------------------------------|
  D|-------------------------------|-------------------------------|
  A|-------------------------------|-------------------------------|
  E|-------------------------------|-------------------------------|

  e|------- ------- ------- -------|------- ------- ------- -------|
  B|----1213----13--131210--12-B13-|10-~---------------------------|
  G|------B-----------R------------|-------------------------------|
  D|-------------------------------|-------------------------------|
  A|-------------------------------|-------------------------------|
  E|-------------------------------|-------------------------------|
                                        You're  a   rockin'  and 
                                            just   a            a



  e10------10--10--10--10--10--10--|8---8-- 8---8-- 8---8-- 8---8--|
  B|9-------9---9---9---9---9---9--|7---7---7---7---7---7---7---7--|
  G|9-------9---9---9---9---9---9--|7---7---7---7---7---7---7---7--|
  D|-------------------------------|-------------------------------|
  A|-------------------------------|-------------------------------|
  E|-------------------------------|-------------------------------|

  e|------- ------- ------- -------|------- ------- ------- -------|
  B|-------------------------------|-------------------------------|
  G|-------------------------------|-------------------------------|
  D|----------------9---9---11--9--|----------------7---7---9---7--|
  A|7---7---11--7------------------|5---5---9---5------------------|
  E|-------------------------------|-------------------------------|

  e|------- ------- ------- -------|------- ------- ------- -------|
  B|------------13--131210--12-B13-|10-~---------------------------|
  G|------------------R------------|-------------------------------|
  D|-------------------------------|-------------------------------|
  A|-------------------------------|-------------------------------|
  E|-------------------------------|-------------------------------|

  e|------- ------- ------- -------|------- ------- ------- -------|
  B|----1213----13--131210--12-B13-|10-~---------------------------|
  G|------B-----------R------------|-------------------------------|
  D|-------------------------------|-------------------------------|
  A|-------------------------------|-------------------------------|
  E|-------------------------------|-------------------------------|
    rollin'                         Girl    said    wish    were 
                                        I       I       you     mine


    02:46                          (.

  e|------- ------- ------- -------|------- ------- ------- -------|
  B|8---8---8---8---8-------8---8--|8------------------------------|
  G|6---6---6---6---6-------6---6--|6------------------------------|
  D|7---7---7---7---7-------7---7--|7------------------------------|
  A|-------------------------------|-------------------------------|
  E|-------------------------------|-------------------------------|

  e|------- ------- ------- -------|2------ ------- ------- -------|
  B|-------------------------------|2------------------------------|
  G|-------------------------------|2------------------------------|
  D|------------------------4-/-7--|2------------------------------|
  A|--------4-------7---7----------|0------------------------------|
  E|5---5-------5------------------|-------------------------------|

  e|10----- ------- ------- -------|------- ------- ------- -------|
  B|--13\12---------10-------------|-------------------------------|
  G|-------------------------------|-------------------------------|
  D|--------------------121312P11--|-------------------------------|
  A|----------------------B-R------|12-----------------------------|
  E|-------------------------------|-------------------------------|







        B  Bend
        R  Release
        /  Slide up
        \  Slide down
        H  Hammer-on
        P  Pull-off
        ~  Vibrato
        +  Harmonic
        x  Mute note
        .  Play note like a dot in standard notation
        ^  Ties two notes together
        (. Pause





Comments


Popular Beatles tabs & chords
Come Together Bass Tabs
A Day In The Life 2 Chords
A Taste Of Honey 1 Chords
And Your Bird Can Sing Chords
Carry That Weight 1 Chords
For No One 5 Chords
For You Blue 1 Chords
Band On The Run Tabs
Birthday (Intro) Tabs
Blackbird 4 Tabs


Song lyrics



↑ Back to top | Tablatures and chords are parodies/interpretations of the original songs. You may use it for private study, scholarship, research or language learning purposes only
© 2014 AZChords.com Contact us | Privacy policy | DMCA | Add/correct tabs | Request tabs | Top 50 tabs