» » »

Beatles, Day Tripper Tabs (ver.9)

Artists:  A B C D E F G H I J K L M N O P Q R S T U V W X Y Z # 

Day Tripper Tabs (ver.9)

Beatles Tabs
 Rating:
4/5 (4 votes)
Day Tripper lessons Tabs too difficult? Try these video lessons and learn fast
                Tuning: Standard Tuning (EADGBE)
Symbols:
X - Rest
h - Hammer On
~ - Vibrato
b - Bend


Intro

E|---------------------------|---------------------------|
B|---------------------------|---------------------------|
G|---------------------------|---------------------------|
D|------------2-O----4----O-2|------------2-O----4----O-2|
A|----------2------2----2----|----------2------2----2----|
E|---O--3-4------------------|---O--3-4------------------|

E|---------------------------|---------------------------|
B|---------------------------|---------------------------|
G|---------------------------|---------------------------|
D|------------2-O----4----O-2|------------2-O----4----O-2|
A|----------2------2----2----|----------2------2----2----|
E|---O--3-4------------------|---O--3-4------------------|

E|---------------------------|
B|---------------------------|
G|---------------------------|
D|------------2-O----4----O-2|
A|----------2------2----2----|
E|---O--3-4------------------|

Verse 1

E|---------------------------|---------------------------|
B|---------------------------|---------------------------|
G|---------------------------|---------------------------|
D|------------2-O----4----O-2|------------2-O----4----O-2|
A|----------2------2----2----|----------2------2----2----|
E|---O--3-4------------------|---O--3-4------------------|
    Got a good reason         for taking the easy way out

E|---------------------------|---------------------------|
B|---------------------------|---------------------------|
G|------------2-O----4----O-2|---------------------------|
D|----------2------2----2----|------------2-O----4----O-2|
A|---O--3-4------------------|----------2------2----2----|
E|---------------------------|---O--3-4------------------|
    Got a good reason           for taking the easy way out now

Chorus
        F#                       
E|---X--2--------------------|---X-----------------------|
B|---X--2--------------------|---X-----------------------|
G|---X--3--------------------|---X-----------------------|
D|---X--4--------------------|---X-----------------------|
A|---X-----------------------|---X-----------------------|
E|---X-----------------------|---X-----------------------|
   She was a day tripper,       a one way ticket yea

             A                   G        C
E|---X-----------------------|---3--------0--------------|
B|---X-------1---------------|---0--------1--------------|
G|---x-------1---------------|---0--------0--------------|
D|---X-------1---------------|---0--------2--------------|
A|---X-------0---------------|---2--------3--------------|
E|---X-----------------------|---3-----------------------|
     It took me so long             to find out, 

        B   
E|---X--2--------------------|
B|---X--4--------------------|
G|---X--4--------------------|
D|---X--0--------------------|
A|---X-----------------------|
E|---X-----------------------|
    and I found out

Verse 2

E|---------------------------|---------------------------|
B|---------------------------|---------------------------|
G|---------------------------|---------------------------|
D|------------2-O----4----O-2|------------2-O----4----O-2|
A|----------2------2----2----|----------2------2----2----|
E|---O--3-4------------------|---O--3-4------------------|

E|---------------------------|---------------------------|
B|---------------------------|---------------------------|
G|---------------------------|---------------------------|
D|------------2-O----4----O-2|------------2-O----4----O-2|
A|----------2------2----2----|----------2------2----2----|
E|---O--3-4------------------|---O--3-4------------------|
     She's a big teaser,        she took me half the way there         

E|---------------------------|---------------------------|
B|---------------------------|---------------------------|
G|------------2-O----4----O-2|---------------------------|
D|----------2------2----2----|------------2-O----4----O-2|
A|---O--3-4------------------|----------2------2----2----|
E|---------------------------|---O--3-4------------------|
    She's a big teaser,        she took me half the way there now

Chorus

        F#                       
E|---X--2--------------------|---X-----------------------|
B|---X--2--------------------|---X-----------------------|
G|---X--3--------------------|---X-----------------------|
D|---X--4--------------------|---X-----------------------|
A|---X-----------------------|---X-----------------------|
E|---X-----------------------|---X-----------------------|
   She was a day tripper,       a one way ticket yea

             A                   G        C
E|---X-----------------------|---3--------0--------------|
B|---X-------1---------------|---0--------1--------------|
G|---x-------1---------------|---0--------0--------------|
D|---X-------1---------------|---0--------2--------------|
A|---X-------0---------------|---2--------3--------------|
E|---X-----------------------|---3-----------------------|
     It took me so long             to find out, 

        B   
E|---X--2--------------------|
B|---X--4--------------------|
G|---X--4--------------------|
D|---X--0--------------------|
A|---X-----------------------|
E|---X-----------------------|
    and I found out


Pre-Solo

E|--------------------------|---------|
B|--------------------2-----|---------|
G|---4--------4--2----------|---2-----|
D|---4--0-1-4-------4----4--|---------|
A|---2----------------------|---------|
E|--------------------------|---------|

E|--------------------------|---------|
B|--------------------2-----|---------|
G|---4--------4--2----------|---2-----|
D|---4--0-1-4-------4----4--|---------|
A|---2----------------------|---------|
E|--------------------------|---------|

E|--------------------------|---------|
B|--------------------2-----|---------|
G|---4--------4--2----------|---2-----|
D|---4--0-1-4-------4----4--|---------|
A|---2----------------------|---------|
E|--------------------------|---------|

Solo
E|---------------------------|---5b----------------------|
B|----------3------3---5h-7--|---------7---5-------------|
G|---4---4-----4-------------|---------------------------|
D|---------------------------|---------------------------|
A|---------------------------|---------------------------|
E|---------------------------|---------------------------|

E|-------------10--------10--|---12b14b12---10-----------|
B|---12~--12~--------12------|-------------------12------|
G|---------------------------|---------------------------|
D|---------------------------|---------------------------|
A|---------------------------|---------------------------|
E|---------------------------|---------------------------|

Verse 3

E|---------------------------|---------------------------|
B|---------------------------|---------------------------|
G|---------------------------|---------------------------|
D|------------2-O----4----O-2|------------2-O----4----O-2|
A|----------2------2----2----|----------2------2----2----|
E|---O--3h-4-----------------|---O--3h-4-----------------|

E|---------------------------|---------------------------|
B|---------------------------|---------------------------|
G|---------------------------|---------------------------|
D|------------2-O----4----O-2|------------2-O----4----O-2|
A|----------2------2----2----|----------2------2----2----|
E|---O--3h-4-----------------|---O--3h-4-----------------|
    Tried to please her,      she only played one night stands 
E|---------------------------|---------------------------|
B|---------------------------|---------------------------|
G|---------------------------|------------2-O----4----O-2|
D|------------2-O----4----O-2|----------2------2----2----|
A|----------2------2----2----|---O--3h-4-----------------|
E|---O--3h-4-----------------|---------------------------|
    Tried to please her,      she only played one night stands now

Chorus

        F#                       
E|---X--2--------------------|---X-----------------------|
B|---X--2--------------------|---X-----------------------|
G|---X--3--------------------|---X-----------------------|
D|---X--4--------------------|---X-----------------------|
A|---X-----------------------|---X-----------------------|
E|---X-----------------------|---X-----------------------|
   She was a day tripper,       a Sunday driver yea

             A                   G        C
E|---X-----------------------|---3--------0--------------|
B|---X-------1---------------|---0--------1--------------|
G|---x-------1---------------|---0--------0--------------|
D|---X-------1---------------|---0--------2--------------|
A|---X-------0---------------|---2--------3--------------|
E|---X-----------------------|---3-----------------------|
     It took me so long             to find out, 

        B   
E|---X--2--------------------|
B|---X--4--------------------|
G|---X--4--------------------|
D|---X--0--------------------|
A|---X-----------------------|
E|---X-----------------------|
    and I found out

Ending

E|---------------------------|---------------------------|
B|---------------------------|---------------------------|
G|---------------------------|---------------------------|
D|------------2-O----4----O-2|------------2-O----4----O-2|
A|----------2------2----2----|----------2------2----2----|
E|---O--3-4------------------|---O--3-4------------------|

E|---------------------------|---------------------------|
B|---------------------------|---------------------------|
G|---------------------------|---------------------------|
D|------------2-O----4----O-2|------------2-O----4----O-2|
A|----------2------2----2----|----------2------2----2----|
E|---O--3-4------------------|---O--3-4------------------|

E|---------------------------|---------------------------|
B|---------------------------|---------------------------|
G|---------------------------|---------------------------|
D|------------2-O----4----O-2|------------2-O----4----O-2|
A|----------2------2----2----|----------2------2----2----|
E|---O--3-4------------------|---O--3-4------------------|
        Day tripper                 Day tripper yea
E|---------------------------|---------------------------|
B|---------------------------|---------------------------|
G|---------------------------|---------------------------|
D|------------2-O----4----O-2|------------2-O----4----O-2| (Fade Out on the last measure)
A|----------2------2----2----|----------2------2----2----|
E|---O--3-4------------------|---O--3-4------------------|
        Day tripper                 Day tripper yea

Order Of Song
Intro
Verse 1
Chorus
Verse 2
Chorus
Pre-Solo
Solo
Verse 3
Chorus
Ending

Chords Used:

    F#      A     G       C      B  
E|---2--|------|---3--|---0--|---2--|
B|---2--|---1--|---0--|---1--|---4--|
G|---3--|---1--|---0--|---0--|---4--|
D|---4--|---1--|---0--|---2--|---0--|
A|------|------|---2--|---3--|------|
E|------|------|---3--|------|------|
            
Submit corrections

comments powered by Disqus
↑ Back to top | Beatles Tabs for Day Tripper. Lyrics for acoustic guitar and electric guitar. Tablatures and chords are parodies/interpretations of the original songs. You may use it for private study, scholarship, research or language learning purposes only