» » »

Beatles, Day Tripper Tabs (ver.3)

Artists:  A B C D E F G H I J K L M N O P Q R S T U V W X Y Z # 

Day Tripper Tabs (ver.3)

Beatles Tabs
 Rating:
4/5 (4 votes)
Day Tripper lessons Tabs too difficult? Try these video lessons and learn fast
1
                Day Tripper by Beatles


[Intro] (E7)
Riff1
Riff1 + bass
Riff1 + bass + beat ring + rhythm guitar
Riff1 + bass + beat ring + rhythm guitar

Riff1 (intro / verse E7)
e-----------------------------
B-----------------------------
G-----------------------------
D-----------2---0---4---0-2---
A---------2-------2---2-------
E-0---3-4---------------------

Riff2 (verse A7)
e----------------------------
B----------------------------
G-----------2-0-----4----0-2-
D---------2-------2----2-----
A-0---3-4--------------------
E----------------------------

[Verse] (Riff1)
E7                     E7
                       Got a good reason,   for taking the easy way out
A7                     E7
Got a good reason,   for taking the easy way out now

[Chorus]
          F#7
She was a da___a__a_ay tripper,    one_ way_ ticket_ yeah__
           A7          G#7               C#7                 B7
It took me so___o_____ long__    to find out_,   and I found out_

Riff1 + beat ring shake

[Verse] (Riff1)
E7                     E7
                       She's_ a big teaser_,  she took me half_ the way there_
A7                     E7
She's_ a big teaser_,  she_ took me half_ the way there now_

[Repeat Chorus]

Riff3 (solo B7)
e----------------------------
B----------------------------
G-----------4-2-----6----2-4-
D-4-------4-------4----4-----
A-2---5-6--------------------
E----------------------------

[Solo] (B7)
B7 (&Riff3)
B7 (&Riff3)
B7 (&Riff3)
B7 (&Solo1)
B7 (&Solo2)
B7 ////

Solo1
e-------------------------|----5----------------|
B------------3r3----3--5b-|-----------5r5-------|
G--4----4--------4--------|---------------------|
D-------------------------|---------------------|
A-------------------------|---------------------|
E-------------------------|---------------------|

Solo2
e--------------10------10--12--|--12--12r12-10----------
B--12----12--------12----------|----------------12--12--
G------------------------------|------------------------
D------------------------------|------------------------
A------------------------------|------------------------
E------------------------------|------------------------
Riff1 + beat ring shake

[Verse] (Riff1)
E7                    E7
                      Tried to please her, but she only played one night stands
A7                    E7
Tried to please her,  but she only played one night stands now_

[Chorus]
          F#7
She was a da___a__a_ay tripper,    Sun__day__ driver_ yeah__
           A7          G#7               C#7                 B7
It took me SOOOOOOO___ long__    to find out_,   and I found out_

[Repeat Intro] (E7)
Day tripper            Day tripper yeah     (2x then fade out
            
Submit corrections

comments powered by Disqus
↑ Back to top | Beatles Tabs for Day Tripper. Lyrics for acoustic guitar and electric guitar. 1 Tablatures and chords are parodies/interpretations of the original songs. You may use it for private study, scholarship, research or language learning purposes only