» » »

Day Tripper Tabs (ver.2)

Artists:  A B C D E F G H I J K L M N O P Q R S T U V W X Y Z # 

Day Tripper Tabs (ver.2)

Beatles
Rating:
0/5 (0 votes)

Hard to play? Try these video lessons and learn fast.
                --------------------------------|-------------------------------|-------------
--------------------------------|-------------------------------|-------------
--------------------------------|-------------------------------|-------------
-----------2-0-------4-----0--2-|-----------2-0----4-----0--2---|-------------
---------2--------2-----2-------|---------2-----2-----2---------|-------------
-0--3--4------------------------|0--3--4------------------------|-------------
       This is not the right amount of times you should play each one but     

---------------------------|----------------------------------|---------------
---------------------------|----------------------------------|---------------
-----------2-0----4-----0-2|----------------------------------|---------------
---------2-----2-----2-----|----------2-0-----4-----0-2-------|---------------
-0--3--4-------------------|--------2------2-----2------------|---------------
---------------------------|0--3--4----------------------0----|---------------
 just listen to the song and figure it out.                                   

-2-16x-|--x--4x-|--2-4x-|--1-4x-|--x--4x-|------------------------------------
-3-----|--2-----|--1----|--2----|--4-----|------------------------------------
-4-----|--0-----|--1----|--1----|--4-----|------------------------------------
-4-----|--2-----|--1----|--3----|--4-----|------------------------------------
-2-----|--x-----|--x----|--x----|--2-----|------------------------------------
-x-----|--x-----|--x----|--x----|--x-----|------------------------------------
 After this you just repeat the whole thing and add distortion.
            
Hard to play? Try these video lessons and learn fast. | Correct




comments powered by Disqus
↑ Back to top | Tablatures and chords are parodies/interpretations of the original songs. You may use it for private study, scholarship, research or language learning purposes only