>
 >
Day Tipper

Day Tipper Guitar Tabs

Beatles - Day Tipper chords, tabs, tablatures, lyrics

Guitar lessons | Add/correct | Request | Top 50 tabs Artists:  A B C D E F G H I J K L M N O P Q R S T U V W X Y Z 0-9

Day Tipper Guitar Tabs – Beatles

CD, Sheet music, Poster

Do you like Day Tipper? Share with your friends now
Tabs
     E7                                                                    
E||--0----0----0----0----|--0----0----0----0-----|-------0----0-----0-----|
B||--3----3----3----3----|--3----3----3----3-----|-------3----3-----3-----|
G||----------------------|-----------------------|---------------3-----3--|
D||----------------------|-----------------------|------------------------|
A||----------------------|-----------------------|------------------------|
E||----------------------|--------------------0--|--0---------------------|


                                                                               
--0-----0-----0-----0-----|-------0----0-----0-----|--0-----0-----0-----0-----|
--3-----3-----3-----3-----|-------3----3-----3-----|--3-----3-----3-----3-----|
-----2-----0--------------|------------------------|--------------------------|
-----------------2--------|------------------------|-----0-----2--------------|
--------------------------|---------------0-----2--|--------------------------|
-----------------------0--|--0---------------------|-----------------3-----0--|


                                                E7                      
--0----0----0----0----|--0----0----0----0----|--0----0-----0-----0-----|
--3----3----3----3----|--3----3----3----3----|--3----3-----3-----3-----|
----------------------|----------------------|-------------------------|
----------------------|----------------------|-------------------2--0--|
----------------------|----------------------|----------------2--------|
----------------------|----------------------|--0-------3--4-----------|


                                                                              
--0----0-----0-----0-----|--0----0-----0-----0-----|--0----0-----0-----0-----|
--3----3-----3-----3-----|--3----3-----3-----3-----|--3----3-----3-----3-----|
-------------------------|-------------------------|-------------------------|
----------4--------0--2--|-------------------2--0--|----------4--------0--2--|
-------2--------2--------|----------------2--------|-------2--------2--------|
-------------------------|--0-------3--4-----------|-------------------------|


  E7                                                   E7                       
--5--4--2--0--------------|-------------------------|--5--4--2--0--------------|
-----------------0--------|--3----------3-----------|-----------------0-----0--|
--------------------------|--2----------2-----------|--------------------------|
--------------------2--0--|----------4--------0--2--|--------------------2--0--|
-----------------2--------|-------2--------2--------|-----------------2--------|
--0--------3--4-----------|-------------------------|--0--------3--4-----------|


                           A7                                                 
------------------------|--5--3--2--0--------------|-------------------------|
------------------------|--------------------2--0--|-----------3-------0--2--|
------------------------|--------------------2--0--|-----------4-------0--2--|
----0-----4-------0--2--|-----------------2--------|-----0--2-------2--------|
-------2-------2--------|--0--------3--4-----------|--0----------------------|
------------------------|--------------------------|-------------------------|


  E7                                                  F#7                      
--5--4--2--0--------------|------------------------|--2--------------------0--|
-----------------0-----0--|------------------------|--2--------------------0--|
--------------------------|------------------------|--3--------------------1--|
--------------------2--0--|----0-----4-------0--2--|--4-----------------------|
-----------------2--------|-------2-------2--------|--4--4--4--4--4--4--4-----|
--0--------3--4-----------|------------------------|--2--2--2--2--2--2--2-----|


                                                       
-----2----------------3/4--|-----2-----0-----2--------|
-----2----------------4/5--|-----2-----0-----2-----2--|
-----3----------------3/4--|-----3-----1-----3-----3--|
---------------------------|-----------------------2--|
--------4--4--4--4---------|--------------------------|
--2-----2--2--2--2--2------|--2-----2-----2-----2-----|


                              A7                       
---------------------------|--------------------------|
--------------2--5h-2--7/8-|-----------------------7--|
--------------3--------6/6-|-----------------------5--|
---------------------------|--------------------------|
--4--4--4--4---------------|--7--7--7--7--7--7--7-----|
--2--2--2--2--2-----2------|--5--5--5--5--5--5--5-----|


  G#7                        C#m7                      B7sus4               
--------------0-----------|----------------------0--|----0----0----0--0----|
-----------------7-----5--|--------------5--5----0--|----0----0----0--0----|
-----------------------4--|----------------------2--|----2----2----2--2----|
--------------------------|--6--6--6--6--6--6----4--|----4----4----4--4----|
--6--6--6--6--------------|--4--4--4--4--4--4----2--|----2----2----2--2----|
--4--4--4--4--4-----4-----|-------------------------|----------------------|


  E7                                                                          
--0----0-----0-----0-----|--0----0-----0-----0-----|-------0-----0-----0-----|
--3----3-----3-----3-----|--3----3-----3-----3-----|-------3-----3-----3-----|
-------------------------|-------------------------|-------------------------|
-------------------2--0--|----------4--------0--2--|-------------------2--0--|
----------------2--------|-------2--------2--------|----------------2--------|
----------3--4-----------|-------------------------|--0-------3--4-----------|


                            E7                                                 
--0----0-----0-----0-----|--5--4--2--0--------------|-------------------------|
--3----3-----3-----3-----|-----------------0--------|--3----------3-----------|
-------------------------|--------------------------|--2----------2-----------|
----------4--------0--2--|--------------------2--0--|----------4--------0--2--|
-------2--------2--------|-----------------2--------|-------2--------2--------|
-------------------------|--0--------3--4-----------|-------------------------|


  E7                                                  A7                       
--5--4--2--0--------------|------------------------|--5--3--2--0--------------|
-----------------0-----0--|------------------------|--------------------2--0--|
--------------------------|------------------------|--------------------2--0--|
--------------------2--0--|----0-----4-------0--2--|-----------------2--------|
-----------------2--------|-------2-------2--------|--0--------3--4-----------|
--0--------3--4-----------|------------------------|--------------------------|


                            E7                                                
-------------------------|--5--4--2--0--------------|------------------------|
-----------3-------0--2--|-----------------0-----0--|------------------------|
-----------4-------0--2--|--------------------------|------------------------|
-----0--2-------2--------|--------------------2--0--|----0-----4-------0--2--|
--0----------------------|-----------------2--------|-------2-------2--------|
-------------------------|--0--------3--4-----------|------------------------|


  F#7                                                                           
--2--------------------0--|-----2----------------3/4--|-------2----0--2--------|
--2--------------------0--|-----2----------------4/5--|-------2----0--2-----2--|
--3--------------------1--|-----3----------------3/4--|-------3----1--3-----3--|
--4-----------------------|---------------------------|---------------------2--|
--4--4--4--4--4--4--4-----|--------4--4--4--4---------|------------------------|
--2--2--2--2--2--2--2-----|--2-----2--2--2--2--2------|--2----2----2-----2-----|


                              A7                       
---------------------------|--------------0-----------|
--------------2--5h-2--7/8-|-----------------8-----7--|
--------------3--------5/6-|-----------------6-----5--|
---------------------------|--------------------------|
--4--4--4--4---------------|-----7--7--7--------7-----|
--2--2--2--2--2-----2------|--5--5--5--5--5-----5-----|


  G#7                        C#m7                      B7sus4               
--------------0-----------|----------------------0--|----0----0--0----x----|
-----------------7-----5--|--------------5--5----0--|----0----0--0----x----|
-----------------------4--|----------------------2--|----2----2--2----x----|
--------------------------|--6--6--6--6--6--6----4--|----4----4--4---------|
--6--6--6--6--------------|--4--4--4--4--4--4----2--|----2----2--2---------|
--4--4--4--4--4-----4-----|-------------------------|----------------------|


  E7                                                                          
--0----0-----0-----0-----|--0----0-----0-----0-----|-------0-----0-----0-----|
--3----3-----3-----3-----|--3----3-----3-----3-----|-------3-----3-----3-----|
-------------------------|-------------------------|-------------------------|
-------------------2--0--|----------4--------0--2--|-------------------2--0--|
----------------2--------|-------2--------2--------|----------------2--------|
--0-------3--4-----------|-------------------------|--0-------3--4-----------|


                                           
--0----0--------------|------------------||
--3----3--------------|------------------||
----------------------|------------------||
----------4-----------|------------------||
-------2--------------|------------------||
---------------0------|------------------||





Comments


Popular Beatles tabs & chords
A Hard Day's Night Bass Tabs
Babys In Black Bass Tabs
A Taste Of Honey 1 Chords
Help! Chords
I'll Follow The Sun Chords
Till There Was You Chords
Youve Got To Hide Your Love Chords
Besame Mucho Tabs
Everybodys Tryin To Be My Baby Tabs
Goodnight 2 Tabs


Song lyrics



↑ Back to top | Tablatures and chords are parodies/interpretations of the original songs. You may use it for private study, scholarship, research or language learning purposes only
© 2014 AZChords.com Contact us | Privacy policy | DMCA | Add/correct tabs | Request tabs | Top 50 tabs