>
 >
Cry For A Shadow

Cry For A Shadow Bass Tabs

Beatles - Cry For A Shadow chords, tabs, tablatures, lyrics

Guitar lessons | Add/correct | Request | Top 50 tabs Artists:  A B C D E F G H I J K L M N O P Q R S T U V W X Y Z 0-9

Cry For A Shadow Bass Tabs – Beatles

CD, Sheet music, Poster

Do you like Cry For A Shadow? Share with your friends now
Bass TabsTabsTabs v2
Cry For A Shadow
The Beatles
Written by John Lennon and George Harrison

This instrumental comes from the time when they played in Hamburg.

Intro:
G|------- ------- ------- -------|------- ------- ------- -------|
D|-------------------------------|-------------------------------|
A|-------------------------------|-------------------------------|
E|-------------------------------|-------------------------------|



G|------- ------- ------- -------|------- ------- ------- -------|
D|-------------------------------|-------------------------------|
A|-------------------------------|------------------------10--\--|
E|-------------------------------|-------------------------------|


Verse:
G|------- ------- ------- -------|------- ------- ------- -------|
D|-------------------------------|-------------------------------|
A|3-----------3------------------|3-----------3------------------|
E|----------------5-----------5--|----------------5-------3---5--|



G|------- ------- ------- -------|------- ------- ------- -------|
D|-------------------------------|-------------------------------|
A|3-----------3------------------|3-----------3------------------|
E|----------------5-----------5--|----------------5-------3------|



G|------- ------- ------- -------|------- ------- ------- -------|
D|-------------------------------|-------------------------------|
A|------------3------------------|----------------5-------5------|
E|1-----------------------1------|3-----------3------------------|



G|------- ------- ------- -------|------- ------- ------- -------|
D|-------------------------------|-------------------------------|
A|3-----------3------------------|3-----------3------------------|
E|----------------5-----------5--|----------------5-------3------|


Verse:
G|------- ------- ------- -------|------- ------- ------- -------|
D|-------------------------------|-------------------------------|
A|3-----------3------------------|3-----------3------------------|
E|----------------5-----------5--|----------------5-------3------|



G|------- ------- ------- -------|------- ------- ------- -------|
D|-------------------------------|-------------------------------|
A|3-----------3------------------|3-----------3------------------|
E|----------------5-----------5--|----------------5-------3------|



G|------- ------- ------- -------|------- ------- ------- -------|
D|-------------------------------|-------------------------------|
A|----------------3--------------|----------------5-----------5--|
E|1-----------1-----------1------|3-----------3------------------|



G|------- ------- ------- -------|------- ------- ------- -------|
D|-------------------------------|-------------------------------|
A|3-----------3------------------|3-----------3------------------|
E|----------------5-----------5--|----------------5-------2------|


Bridge:
G|------- ------- ------- -------|------- ------- ------- -------|
D|-------------------------------|-------------------------------|
A|--------7-------5---5---7------|--------7---7---5---5---7---7--|
E|0------------------------------|0------------------------------|



G|------- ------- ------- -------|------- ------- ------- -------|
D|--------7-------5-------7------|--------7-------5-------7------|
A|-------------------------------|-------------------------------|
E|5------------------------------|5------------------------------|



G|------- ------- ------- -------|------- ------- ------- -------|
D|-------------------------------|-------------------------------|
A|5-------5-------3-------3------|2-------2-------0-------0------|
E|-------------------------------|-------------------------------|



G|------- ------- 7------ -------|7---7-- 9---7-- 9---7-- 9---\--|
D|--------9---------------9------|-------------------------------|
A|10-----------------------------|-------------------------------|
E|-------------------------------|-------------------------------|


Verse:
G|------- ------- ------- -------|------- ------- ------- -------|
D|-------------------------------|-------------------------------|
A|3-----------3------------------|3-----------3------------------|
E|----------------5-----------5--|----------------5-------3------|



G|------- ------- ------- -------|------- ------- ------- -------|
D|-------------------------------|-------------------------------|
A|3-----------3------------------|3-----------3------------------|
E|----------------5-----------5--|----------------5-------3------|



G|------- ------- ------- -------|------- ------- ------- -------|
D|-------------------------------|-------------------------------|
A|----------------3--------------|----------------5-----------5--|
E|1-------1---------------1------|3-----------3------------------|



G|------- ------- ------- -------|------- ------- ------- -------|
D|-------------------------------|-------------------------------|
A|3-----------3------------------|3-----------3-----------3------|
E|----------------5-----------5--|----------------5--------------|


Re-intro:
G|------- ------- ------- -------|------- ------- ------- -------|
D|5------------------------------|-------------------------------|
A|-------------------------------|-------------------------------|
E|-------------------------------|-------------------------------|



G|------- ------- ------- -------|------- ------- ------- -------|
D|-------------------------------|-------------------------------|
A|-------------------------------|------------------------10--\--|
E|-------------------------------|-------------------------------|


Verse:
G|------- ------- ------- -------|------- ------- ------- -------|
D|-------------------------------|-------------------------------|
A|3-----------3------------------|3-----------3------------------|
E|----------------5-----------5--|----------------5-------3------|



G|------- ------- ------- -------|------- ------- ------- -------|
D|-------------------------------|-------------------------------|
A|3-----------3------------------|3-----------3------------------|
E|----------------5-----------5--|----------------5-------3------|



G|------- ------- ------- -------|------- ------- ------- -------|
D|-------------------------------|-------------------------------|
A|----------------3--------------|----------------5-------5------|
E|1-----------1-----------1------|3-----------3------------------|



G|------- ------- ------- -------|------- ------- ------- -------|
D|-------------------------------|-------------------------------|
A|3-----------3------------------|3-----------3------------------|
E|----------------5-----------5--|----------------5-------3------|


Verse:
G|------- ------- ------- -------|------- ------- ------- -------|
D|-------------------------------|-------------------------------|
A|3-----------3------------------|3-----------3------------------|
E|----------------5-----------5--|----------------5-------3---5--|



G|------- ------- ------- -------|------- ------- ------- -------|
D|-------------------------------|-------------------------------|
A|3-----------3------------------|3-----------3------------------|
E|----------------5-----------5--|----------------5-------3------|



G|------- ------- ------- -------|------- ------- ------- -------|
D|-------------------------------|-------------------------------|
A|-------------------------------|-------------------------------|
E|1-------1-------1-------1------|3-------3-------3-------3------|



G|------- ------- ------- -------|------- ------- ------- -------|
D|-------------------------------|-------------------------------|
A|3-----------3------------------|3------------------------------|
E|----------------5-----------5--|--------3-------2-------1------|


Bridge:
G|------- ------- ------- -------|------- ------- ------- -------|
D|-------------------------------|-------------------------------|
A|--------7-------5-------7------|--------7-------5-------7---7--|
E|0------------------------------|0------------------------------|



G|------- ------- ------- -------|------- ------- ------- -------|
D|--------7-------5-------7------|--------7-------5-------7---7--|
A|-------------------------------|-------------------------------|
E|5------------------------------|5------------------------------|



G|------- ------- ------- -------|------- ------- ------- -------|
D|-------------------------------|------------------------0------|
A|5-------5-------3-------3------|2-------2-------0--------------|
E|-------------------------------|-------------------------------|



G|------- ------- ------- 7------|7---7-- 9---7-- 9---7-- 9---\--|
D|----------------9--------------|-------------------------------|
A|10------10---------------------|-------------------------------|
E|-------------------------------|-------------------------------|


Verse:
G|------- ------- ------- -------|------- ------- ------- -------|
D|-------------------------------|-------------------------------|
A|3-----------3------------------|3-----------3------------------|
E|----------------5-----------5--|----------------5-------3---5--|



G|------- ------- ------- -------|------- ------- ------- -------|
D|-------------------------------|-------------------------------|
A|3-----------3------------------|3-----------3------------------|
E|----------------5-----------5--|----------------5-------3------|



G|------- ------- ------- -------|------- ------- ------- -------|
D|-------------------------------|-------------------------------|
A|----------------3--------------|----------------5-------5------|
E|1-------1---------------1------|3-----------3------------------|



G|------- ------- ------- -------|------- ------- ------- -------|
D|-------------------------------|-------------------------------|
A|3-----------3------------------|3-----------3-----------3------|
E|----------------5-----------5--|----------------5--------------|


Re-intro:
G|------- ------- ------- -------|------- ------- ------- -------|
D|5------------------------------|-------------------------------|
A|-------------------------------|-------------------------------|
E|-------------------------------|-------------------------------|



G|------- ------- ------- -------|------- ------- ------- -------|
D|-------------------------------|-------------------------------|
A|-------------------------------|------------------------10--\--|
E|-------------------------------|-------------------------------|


Verse:
G|------- ------- ------- -------|------- ------- ------- -------|
D|-------------------------------|-------------------------------|
A|3-----------3------------------|3-----------3------------------|
E|----------------5-----------5--|----------------5-------3---5--|



G|------- ------- ------- -------|------- ------- ------- -------|
D|-------------------------------|-------------------------------|
A|3-----------3------------------|3-----------3------------------|
E|----------------5-----------5--|----------------5-------3------|



G|------- ------- ------- -------|------- ------- ------- -------|
D|-------------------------------|-------------------------------|
A|----------------3--------------|----------------5-------5------|
E|1-------1---------------1---2--|3-------3----------------------|



G|------- ------- ------- -------|------- ------- ------- -------|
D|-------------------------------|-------------------------------|
A|3-----------3------------------|3---------------3--------------|
E|----------------5-----------5--|--------3----------------------|


Please e-mail me for any corrections, or write a comment.





Comments


Popular Beatles tabs & chords
Everybodys Got Something To Hide Except Me And My Monkey 2 Bass Tabs
Ain't She Sweet Chords
Eight Days A Week 1 Chords
Happiness Is A Warm Gun 1 Chords
Honey Pie Chords
Baby's In Black Tabs
Back In The U.S.S.R. 1 Tabs
Band On The Run Tabs
Can't Buy Me Love Tabs
Drive My Car 2 Tabs


Song lyrics



↑ Back to top | Tablatures and chords are parodies/interpretations of the original songs. You may use it for private study, scholarship, research or language learning purposes only
© 2014 AZChords.com Contact us | Privacy policy | DMCA | Add/correct tabs | Request tabs | Top 50 tabs