» » »

Beatles, Come Together Bass tabs (ver.9)

Artists:  A B C D E F G H I J K L M N O P Q R S T U V W X Y Z # 

Come Together Bass tabs (ver.9)

Beatles Tabs
 Rating:
4/5 (4 votes)
Come Together lessons Tabs too difficult? Try these video lessons and learn fast
1
                Come Together (The Beatles)

Intro:
   D
G---------------------------------|
D---------15--12---------15--12---|
A--5-5/-----------5-5/------------|
E---------------------------------|

   D
G---------------------------------|
D---------15--12------------------|
A--5-5/-----------5-5/---15--12---|
E---------------------------------|

Verse I:
   D
G---------------------------------|
D---------15--12-12---------------|     //: 4x
A--5-5/---------------------------|
E---------------------------------|

And then you play this:
   A                            G
G---------------------------------------|
D---------------------------------------|
A---------15--12--------15--12----------|     In this part there
E--5-5------------5-5-----------3h------|     is no slide.


   D
G---------------------------------|
D--------15-12--------------------|    //: 4x
A--5-5/---------------------------|
E---------------------------------|


Verse II:
   D
G---------------------------------|
D-------15--12-12-----------------|      //: 4x
A--5-5/---------------------------|
E---------------------------------|

   A
G----------------------------------|
D----------------------------------|
A--------15-12---------15-12-------|
E--5-5-----------5-5------------3--|h


Chorus:
   B           A   G      A
G---------------------------------|
D---------------------------------|
A---------------------------------|
E--7-7-7-7-7-7-5-5-3-3-3-3/5------|

   D
G---------------------------------|
D---------15-12-------------------|    //: 4x
A--5-5/---------------------------|
E---------------------------------|


Verse III:
   D
G---------------------------------|
D---------15-12-12----------------|    //: 4x
A--5-5/---------------------------|
E---------------------------------|

   A                            G
G----------------------------------|
D----------------------------------|
A--------15-12---------15-12-------|
E--5-5-----------5-5------------3--|h


Chorus
   B           A   G      A
G---------------------------------|
D---------------------------------|
A---------------------------------|
E--7-7-7-7-7-7-5-5-3-3-3-3/5------|



G---------------------------------|
D--------15-12---------15-12------|
A--5-5/---------5-5/--------------|
E---------------------------------|

Solo:
   D
G--------------------------|
D--------------------------|  //: 4x
A--5--5--5--5--5--5--5--5--|
E--------------------------|
   1  2  3  4  5  6  7  8

   A
G--------------------------|
D--------------------------|   //: 4x
A--------------------------|
E--5--5--5--5--5--5--5--5--|

   D
G---------------------------------|
D--------15-12---------15-12------|
A--5-5/----------5-5/-------------|
E---------------------------------|

Verse:

   D
G---------------------------------|
D---------15-12-12----------------|    //: 4x
A--5-5/---------------------------|
E---------------------------------|

   A                            G
G----------------------------------|
D----------------------------------|
A--------15-12---------15-12-------|
E--5-5-----------5-5------------3--|h

Chorus:
   B           A   G      A
G---------------------------------|
D---------------------------------|
A---------------------------------|
E--7-7-7-7-7-7-5-5-3-3-3-3/5------|

   D
G---------------------------------|
D---------15-12-------------------|    //: 4x
A--5-5/---------------------------|
E---------------------------------|

Solo fade out:
   D
G--------------------------|
D--------------------------|
A--5--5--5--5--5--5--5--5--|
E--------------------------|
   1  2  3  4  5  6  7  8

Have a lot of fun.
Please give comments.
Your SCHWUP ;)
            
Submit corrections

comments powered by Disqus
↑ Back to top | Beatles Bass for Come Together. Lyrics for acoustic guitar and electric guitar. 1 Tablatures and chords are parodies/interpretations of the original songs. You may use it for private study, scholarship, research or language learning purposes only