» » »

Come Together Bass tabs (ver.7)

Artists:  A B C D E F G H I J K L M N O P Q R S T U V W X Y Z # 

Come Together Bass tabs (ver.7)

Beatles
Rating:
0/5 (0 votes)

Hard to play? Try these video lessons and learn fast.
                -------------------------------------------------------------------------------
			     Come Together - The Beatles
-------------------------------------------------------------------------------


Tuning:Standerd

	Intro/Verse
G|-------------------10----------|
D|-----------------------12------|
A|------------10h12--------------|X8
E|----10--10---------------------|

  "He Got Hair Down to His Knees"
G|------------5-------------|
D|------------------7-------|
A|-----0-0------------------|X3
E|--------------------------|

   bridge
G|-------------5--------|
D|----------------------|
A|-------0--0-----7-----|
E|-------------------3--|


G|-------------------10----------|
D|-----------------------12------|
A|------------10h12--------------|X8
E|----10--10---------------------|
  
"He say "I know you, you know me""
G|------------5-------------|
D|------------------7-------|
A|-----0-0------------------|X3
E|--------------------------|

   bridge
G|-------------5--------|
D|----------------------|
A|-------0--0-----7-----|
E|-------------------3--|

   Chorus
G|--------------------------------------|
D|--------------------------------------|
A|--------------------------------------|
E|--------7-7-7-7-7-7-7-5-5-3-3--5------|
                                     Last  Time
G|-------------------10----------|  |-----------------10h12h10------|
D|-----------------------12------|  |-------------------------- 12--|
A|------------10h12--------------|X7|----------10h12----------------|
E|------7--7---------------------|  |----7--7-----------------------|
  
"He Got Feet Down Below his Knee"
G|------------5-------------|
D|------------------7-------|
A|-----0-0------------------|X3
E|--------------------------|

   bridge
G|-------------5--------|
D|----------------------|
A|-------0--0-----7-----|
E|-------------------3--|

  Chorus
G|--------------------------------------|
D|--------------------------------------|
A|--------------------------------------|
E|--------7-7-7-7-7-7-7-5-5-3-3--5------|
  

G|-------------------10----------|
D|-----------------------12------|
A|------------10h12--------------|X8
E|----10--10---------------------|
  
"He say "One and one and one is three""
G|------------5-------------|
D|------------------7-------|
A|-----0-0------------------|X3
E|--------------------------|

   bridge
G|-------------5--------|
D|----------------------|
A|-------0--0-----7-----|
E|-------------------3--|


  Chorus
G|--------------------------------------|
D|--------------------------------------|
A|--------------------------------------|
E|--------7-7-7-7-7-7-7-5-5-3-3--5------|


  Chorus
G|--------------------------------------|
D|--------------------------------------|
A|--------------------------------------|
E|--------10-10-10-10-10-10-10-10-------|

Repeat until the end

| /  slide up
| \  slide down
| h  hammer-on
| p  pull-off
| ~  vibrato
| +  harmonic
| x  Mute note
===============================================================================
            
Hard to play? Try these video lessons and learn fast. | Correct




comments powered by Disqus
↑ Back to top | Tablatures and chords are parodies/interpretations of the original songs. You may use it for private study, scholarship, research or language learning purposes only