» » »

Come Together Bass tabs (ver.6)

Artists:  A B C D E F G H I J K L M N O P Q R S T U V W X Y Z # 

Come Together Bass tabs (ver.6)

Beatles
Rating:
0/5 (0 votes)

Hard to play? Try these video lessons and learn fast.
                G|---------------10---------------|---------------10---------------|
D|------------------------12\-----|------------------------12\-----|
A|--------10/12-------------------|--------10/12-------------------|
E|10--10--------------------------|10--10--------------------------|
  ^       ^       ^       ^        ^       ^       ^       ^

G|---------------10---------------|---------------10---------------|
D|------------------------12\-----|------------------------12\-----|
A|--------10/12-------------------|--------10/12-------------------|
E|10--10--------------------------|10--10--------------------------|
  ^       ^       ^       ^        ^       ^       ^       ^

G|---------------10---------------|---------------10---------------|
D|------------------------12\-----|------------------------12\-----|
A|--------10/12-------------------|--------10/12-------------------|
E|10--10--------------------------|10--10--------------------------|
  ^       ^       ^       ^        ^       ^       ^       ^

G|---------------10---------------|---------------10---------------|
D|------------------------12\-----|------------------------12\-----|
A|--------10/12-------------------|--------10/12-------------------|
E|10--10--------------------------|10--10--------------------------|
  ^       ^       ^       ^        ^       ^       ^       ^

G|----------------5---------------|----------------5---------------|
D|------------------------7\------|------------------------7\------|
A|--------------------------------|--------------------------------|
E|5---5---------------------------|5---5---------------------------|
  ^       ^       ^       ^        ^       ^       ^       ^

G|--------------------------------|--------------------------------|
D|--------------------------------|--------------------------------|
A|--------------------------------|--------------------------------|
E|3*------------------------------|--------------------------------|
  ^       ^       ^       ^        ^       ^       ^       ^

G|---------------10---------------|---------------10---------------|
D|------------------------12\-----|------------------------12\-----|
A|--------10/12-------------------|--------10/12-------------------|
E|10--10--------------------------|10--10--------------------------|
  ^       ^       ^       ^        ^       ^       ^       ^

G|---------------10---------------|---------------10---------------|
D|------------------------12\-----|------------------------12\-----|
A|--------10/12-------------------|--------10/12-------------------|
E|10--10--------------------------|10--10--------------------------|
  ^       ^       ^       ^        ^       ^       ^       ^

G|---------------10---------------|---------------10---------------|
D|------------------------12\-----|------------------------12\-----|
A|--------10/12-------------------|--------10/12-------------------|
E|10--10--------------------------|10--10--------------------------|
  ^       ^       ^       ^        ^       ^       ^       ^

G|---------------10---------------|---------------10---------------|
D|------------------------12\-----|------------------------12\-----|
A|--------10/12-------------------|--------10/12-------------------|
E|10--10--------------------------|10--10--------------------------|
  ^       ^       ^       ^        ^       ^       ^       ^

G|----------------5---------------|----------------5---------------|
D|------------------------7\------|------------------------7\------|
A|--------------------------------|--------------------------------|
E|5---5---------------------------|5---5---------------------------|
  ^       ^       ^       ^        ^       ^       ^       ^

G|--------------------------------|--------------------------------|
D|--------------------------------|--------------------------------|
A|--------------------------------|--------------------------------|
E|3*------------------------------|--------------------------------|
  ^       ^       ^       ^        ^       ^       ^       ^

G|--------------------------------|--------------------------------|
D|--------------------------------|--------------------------------|
A|--------------------------------|--------------------------------|
E|7---7---7---7---7---7---5---5---|3---3---3---3---5---------------|
  ^       ^       ^       ^        ^       ^       ^       ^

G|---------------10---------------|---------------10---------------|
D|------------------------12\-----|------------------------12\-----|
A|--------10/12-------------------|--------10/12-------------------|
E|10--10--------------------------|10--10--------------------------|
  ^       ^       ^       ^        ^       ^       ^       ^

G|---------------10---------------|---------------10---------------|
D|------------------------12\-----|-------------------10h1210h1212\|
A|--------10/12-------------------|--------10/12-------------------|
E|10--10--------------------------|10--10--------------------------|
  ^       ^       ^       ^        ^       ^       ^       ^

G|---------------10---------------|---------------10---------------|
D|------------------------12\-----|------------------------12\-----|
A|--------10/12-------------------|--------10/12-------------------|
E|10--10--------------------------|10--10--------------------------|
  ^       ^       ^       ^        ^       ^       ^       ^

G|---------------10---------------|---------------10---------------|
D|------------------------12\-----|------------------------12\-----|
A|--------10/12-------------------|--------10/12-------------------|
E|10--10--------------------------|10--10--------------------------|
  ^       ^       ^       ^        ^       ^       ^       ^

G|----------------5---------------|----------------5---------------|
D|------------------------7\------|------------------------7\------|
A|--------------------------------|--------------------------------|
E|5---5---------------------------|5---5---------------------------|
  ^       ^       ^       ^        ^       ^       ^       ^

G|--------------------------------|--------------------------------|
D|--------------------------------|--------------------------------|
A|--------------------------------|--------------------------------|
E|3*------------------------------|--------------------------------|
  ^       ^       ^       ^        ^       ^       ^       ^

G|--------------------------------|--------------------------------|
D|--------------------------------|--------------------------------|
A|--------------------------------|--------------------------------|
E|7---7---7---7---7---7---5---5---|3---3---3---3---5---------------|
  ^       ^       ^       ^        ^       ^       ^       ^

G|---------------10---------------|---------------10-------10h12---|
D|------------------------12\-----|--------------------------------|
A|--------10/12-------------------|--------10/12-------------------|
E|10--10--------------------------|10--10--------------------------|
  ^       ^       ^       ^        ^       ^       ^       ^

G|--------------------------------|--------------------------------|
D|--------------------------------|--------------------------------|
A|--------------------------------|--------------------------------|
E|10--10--10--10--10--10--10--10--|10--10--10--10--10--10--10--10--|
  ^       ^       ^       ^        ^       ^       ^       ^

G|--------------------------------|--------------------------------|
D|--------------------------------|--------------------------------|
A|--------------------------------|--------------------------------|
E|10--10--10--10--10--10--10--10--|10--10--10--10--10--10--10--10--|
  ^       ^       ^       ^        ^       ^       ^       ^

G|--------------------------------|--------------------------------|
D|--------------------------------|--------------------------------|
A|--------------------------------|--------------------------------|
E|5---5---5---5---5---5---5---5---|5---5---5---5---5---5---5---5---|
  ^       ^       ^       ^        ^       ^       ^       ^

G|--------------------------------|--------------------------------|
D|--------------------------------|--------------------------------|
A|--------------------------------|--------------------------------|
E|5---5---5---5---5---5---5---5---|5---5---5---5---5---5---5---5---|
  ^       ^       ^       ^        ^       ^       ^       ^

G|---------------10---------------|--------------10h1210h1210h1210\|
D|------------------------12\-----|--------------------------------|
A|--------10/12-------------------|--------10h12-------------------|
E|10--10--------------------------|10--10--------------------------|
  ^       ^       ^       ^        ^       ^       ^       ^

G|---------------10---------------|---------------10---------------|
D|------------------------12\-----|------------------------12\-----|
A|--------10/12-------------------|--------10/12-------------------|
E|10--10--------------------------|10--10--------------------------|
  ^       ^       ^       ^        ^       ^       ^       ^

G|---------------10---------------|---------------10---------------|
D|------------------------12\-----|------------------------12\-----|
A|--------10/12-------------------|--------10/12-------------------|
E|10--10--------------------------|10--10--------------------------|
  ^       ^       ^       ^        ^       ^       ^       ^

G|----------------5---------------|----------------5---------------|
D|------------------------7\------|------------------------7\------|
A|--------------------------------|--------------------------------|
E|5---5---------------------------|5---5---------------------------|
  ^       ^       ^       ^        ^       ^       ^       ^

G|--------------------------------|--------------------------------|
D|--------------------------------|--------------------------------|
A|--------------------------------|--------------------------------|
E|3*------------------------------|--------------------------------|
  ^       ^       ^       ^        ^       ^       ^       ^

G|--------------------------------|--------------------------------|
D|--------------------------------|--------------------------------|
A|--------------------------------|--------------------------------|
E|7---7---7---7---7---7---5---5---|3---3---3---3---5---------------|
  ^       ^       ^       ^        ^       ^       ^       ^

G|---------------10---------------|---------------10---------------|
D|------------------------12\-----|------------------------12\-----|
A|--------10/12-------------------|--------10/12-------------------|
E|10--10--------------------------|10--10--------------------------|
  ^       ^       ^       ^        ^       ^       ^       ^

G|---------------10---------------|---------------10---------------|
D|------------------------12\-----|------------------------12\-----|
A|--------10/12-------------------|--------10/12-------------------|
E|10--10--------------------------|10--10--------------------------|
  ^       ^       ^       ^        ^       ^       ^       ^

G|--------------------------------|--------------------------------|
D|--------------------------------|--------------------------------|
A|--------------------------------|--------------------------------|
E|10--10--10--10--10--10--10--10--|10--10--10--10--10--10--8---9---|
  ^       ^       ^       ^        ^       ^       ^       ^

G|--------------------------------|--------------------------------|
D|--------------------------------|--------------------------------|
A|--------------------------------|--------------------------------|
E|10--10--10--10--10--10--10--10--|10--10--10--10--10--10--8---9---|
  ^       ^       ^       ^        ^       ^       ^       ^

G|--------------------------------|--------------------------------|
D|--------------------------------|--------------------------------|
A|--------------------------------|--------------------------------|
E|10--10--10--10--10--10--10--10--|10--10--10--10--10--10--8---9---|
  ^       ^       ^       ^        ^       ^       ^       ^

G|--------------------------------|--------------------------------|
D|--------------------------------|--------------------------------|
A|--------------------------------|--------------------------------|
E|10--10--10--10--10--10--10--10--|10--10--10--10--10--10--8---9---|
  ^       ^       ^       ^        ^       ^       ^       ^

G|--------------------------------|--------------------------------|
D|--------------------------------|--------------------------------|
A|--------------------------------|--------------------------------|
E|10--10--10--10--10--10--10--10--|10--10--10--10--10--10--8---9---|
  ^       ^       ^       ^        ^       ^       ^       ^

G|--------------------------------|--------------------------------|
D|--------------------------------|--------------------------------|
A|--------------------------------|--------------------------------|
E|10--10--10--10--10--10--10--10--|10--10--10--10--10--10--8---9---|
  ^       ^       ^       ^        ^       ^       ^       ^

G|--------------------------------|--------------------------------|
D|--------------------------------|--------------------------------|
A|--------------------------------|--------------------------------|
E|10--10--10--10--10--10--10--10--|10--10--10--10--10--10--8---9---|
  ^       ^       ^       ^        ^       ^       ^       ^

G|--------------------------------|--------------------------------|
D|--------------------------------|--------------------------------|
A|--------------------------------|--------------------------------|
E|10--10--10--10--10--10--10--10--|10--10--10--10--10--10--8---9---|
  ^       ^       ^       ^        ^       ^       ^       ^

G|--------------------------------|--------------------------------|
D|--------------------------------|--------------------------------|
A|--------------------------------|--------------------------------|
E|10--10--10--10--10--10--10--10--|10--10--10--10--10--10--8---9---|
  ^       ^       ^       ^        ^       ^       ^       ^

G|--------------------------------|-----10-----------------------10|
D|--------------------------------|--------12----------------------|
A|--------------------------------|10/12-------12------------------|
E|10--10--10--10--10--10--10--10--|----------------10--10-9/10-10--|
  ^       ^       ^       ^        ^       ^       ^       ^

G|--------------------------------|-----10-----------------------10|
D|12------------------------------|--------12----------------------|
A|--------------------------------|10/12-------12-----------10/12--|
E|---10--10---1010101010---10--10-|----------------10-101010-------|
  ^       ^       ^       ^        ^       ^       ^       ^

G|--------------------------------|--------------------------------|
D|12------------------------------|--------------Fade--------------|
A|--------------------------------|--------------Out---------------|
E|---10--10--1010101010--10--10---|--------------------------------|
  ^       ^       ^       ^        ^       ^       ^       ^
            
Hard to play? Try these video lessons and learn fast. | Correct




comments powered by Disqus
↑ Back to top | Tablatures and chords are parodies/interpretations of the original songs. You may use it for private study, scholarship, research or language learning purposes only