» » »

Come Together Bass tabs (ver.5)

Artists:  A B C D E F G H I J K L M N O P Q R S T U V W X Y Z # 

Come Together Bass tabs (ver.5)

Beatles
Rating:
0/5 (0 votes)

Hard to play? Try these video lessons and learn fast.
                Band: Beatles

The beatles in the 60's were the biggest band
out there, and one of there singles was "Come
Together"

Sounds/Effects
|-------------|        
 \ = Slide up
 ~ = Viberato
|-------------|

     Tip: If you really want to get         |----------|
          the feel and tempo of the          Song Order
          song, I would suggest you         |----------|
          listen to the song                 Main Riff x4   -0:00-
                                             Pre-Chorus x1  -0:11-
Main Riff                                    Short Pause    -0:29-
G|-------0---------|                         Main Riff x4   -0:35-
D|------0----------|                         Pre-Chorus x1  -0:46-
A|----0-----7------|                         Short Pause    -1:04-
E|--0--------------|                         Chorus x1      -1:10-
                                             Main Riff x4   -1:15-
Pre-Chorus                                   Riff #1 x1     -1:26-
G|----------|                                Pre-Chorus x1  -1:27-
D|----------|                                Short Pause    -1:44-
A|-7-7-7-7--|                                Chorus x1      -1:50-
E|----------| x6                             Main Riff x2   -1:56-
                                             Solo x1        -2:02-
G|---------------------------|               Pre-Chorus x1  -2:30-       
D|---------------------------|               Short Pause    -2:48-
A|--\------------------------|               Chorus x1      -2:54-
E|---7-7-7-7-7-7-7-7-7-7-7-7-|               Main Riff x4   -3:00- 
                                             Riff #1 x1     -3:10-
Chorus                                       Riff #2 x1     -3:11-                 
G|-----------------|
D|-----------------|
A|-7777777\5-----0-|
E|----------7777---|

Riff #1
G|--16-16-15-14-|
D|--------------|
A|--------------|
E|--------------|

Riff #2
G|---|
D|---|
A|-7-|
E|---| x120

Solo
G|---------|
D|---------|
A|-7-7-7-7-|
E|---------| x6

G|--------------------------|
D|--------------------------|
A|-\------------------------|
E|--7-7-7-7-7-7-7-7-7-7-7-7-| x2

G|--------------------------|
D|-7-9-7-----------7-9-987--|
A|-------9~-7--7-9----------|
E|--------------------------|
            
Hard to play? Try these video lessons and learn fast. | Correct




comments powered by Disqus
↑ Back to top | Tablatures and chords are parodies/interpretations of the original songs. You may use it for private study, scholarship, research or language learning purposes only