» » »

Beatles, Come Together Tabs (ver.5)

Artists:  A B C D E F G H I J K L M N O P Q R S T U V W X Y Z # 

Come Together Tabs (ver.5)

Beatles Tabs
 Rating:
4/5 (4 votes)
Come Together lessons Tabs too difficult? Try these video lessons and learn fast
1
                ------------------------------------------------------------
                COME TOGETHER-THE BEATLES
------------------------------------------------------------


INTRO and main riff:
e|-----------------------------|
B|-----------------------------|
G|-----------------------------|
D|----------------------10~----|
A|----------10-h12------12~----|
E|-10--10----------------------|
   Shuuuuuu

VERSE
(according to the drums rythm)
    D7+9
e|-------------------------------------------|
B|-------------------------------------------|
G|-------------------------------------------|
D|-------------------------------------------|   X4
A|--12--12--14--14-----12--12--14--14--------|   
E|--10--10--10--10-----10--10--10--10--------|
  PM..........................................


and when he says: 
hair down..
     A
e|--------------------------------------------|
B|--------------------------------------------|
G|--------------------------------------------|
D|--------------------------------------------|    X2
A|---7---7---9---9------7---7---9---9---------|   
E|---5---5---5---5------5---5---5---5---------|
  ............................................
    
   G7
e|------------------------------------------------|
B|------------------------------------------------|
G|------------------------------------------------|
D|------------------------------------------------|
A|--5~--------------------------------------------|
E|--3~--------------------------------------------|
   GOT TO BE A JOKER HE JUST DO WHAT HE PLEASE

CHORUS
          Bm          A    G       A
e--------------------------------------------|
B|-------------------------------------------|
G|--------4-4-4-4-4-4------------------------|
D|--------4-4-4-4-4-4-2-2--------------------|
A|--------2-2-2-2-2-2-0-0--5-5-5-5--7--------|
E|-------------------------3-3-3-3--5--------|
 COME TOGHETEEER      RIGHT NOW        OVER ME

During the organ solo:
e|-------------------------------------------------------|
B|-------------------------------------------------------|
G|-------------------------------------------------------|x2
D|-------------------------------------------------------|
A|-12-12-14-14--12-12-14-14----14-14-15-15--14-14-15-15--|
E|-10-10-10-10--10-10-10-10----10-10-10-10--10-10-10-10--|
PM.....................................................

FIRST SOLO:
e|-15b~--15b-15b15p13-I-15b~------------|-15b~-15b-15b15p13-
B|--------------------I-----------------|-------------------
G|--------------------I-----------------|-------------------
D|--------------------I-----------------|-------------------
A|--------------------I-----------------|-------------------
E|--------------------I-----------------|-------------------

e|--------------------I--15b~---------------|
B|-15b~--15b-15b15p14-I---------------------|
G|--------------------I---------------------|
D|--------------------I---------------------|
A|--------------------I---------------------|
E|--------------------I---------------------|

SECOND SOLO
e|--------------------I--13b-13b13p10-------|
B|-13b~---------------I-----------------13b~|
G|--------------------I---------------------|
D|--------------------I---------------------|
A|--------------------I---------------------|
E|--------------------I---------------------|

e|---------------------|-10--13b13p10-------I
B|----------------13b~-|---------------13b~-I
G|-10--12b12p10--------|--------------------I
D|---------------------|--------------------I
A|---------------------|--------------------I
E|---------------------|--------------------I

e|----------------15b~-I-15b-15b15p13--15b~-|
B|-10--13b13p10--------I--------------------|
G|---------------------I--------------------|
D|---------------------I--------------------|
A|---------------------I--------------------|
E|---------------------I--------------------|

e|-17--20b20p17---20b~-I-17--20b20p17---20b~|
B|---------------------I--------------------|
G|---------------------I--------------------|
D|---------------------I--------------------|
A|---------------------I--------------------|
E|---------------------I--------------------|

e|-13--15b15p13---15b~-I--------------------|
B|---------------------I----------------13b~|
G|---------------------I-10--12b12p10-------|
D|---------------------I--------------------|
A|---------------------I--------------------|
E|---------------------I--------------------|

e|-13b-15b15p13--------I-13b--13b13p10------|
B|----------------13b~-I----------------13b~|
G|---------------------I--------------------|
D|---------------------I--------------------|
A|---------------------I--------------------|
E|---------------------I--------------------|
            
Submit corrections

comments powered by Disqus
↑ Back to top | Beatles Tabs for Come Together. Lyrics for acoustic guitar and electric guitar. 1 Tablatures and chords are parodies/interpretations of the original songs. You may use it for private study, scholarship, research or language learning purposes only