» » »

Come And Get It Bass tabs (ver.1)

Artists:  A B C D E F G H I J K L M N O P Q R S T U V W X Y Z # 

Come And Get It Bass tabs (ver.1)

Beatles
Rating:
0/5 (0 votes)

Hard to play? Try these video lessons and learn fast.
                COME AND GET IT

Written by Paul McCartney


INTRO

  t=94
G|---------------------------------|---------------------------------|
D|---------------------------------|---------------------------------|
A|---------------------------------|---------7---7---7---7---7---7---|
E|-----------------------------0---|-0---0---------------------------|



VERSE


G|---------------------------------|---------------------------------|
D|---------------------------------|---------------------------------|
A|/7---7---7---7---7---7---7---7---|-7---7---7---7---7---7---7---7---|
E|---------------------------------|---------------------------------|



G|---------------------------------|---------------------------------|
D|-7---7---7---7---7---7---7---7-7-|-9---9---9---9---9---9---9---9---|
A|---------------------------------|---------------------------------|
E|---------------------------------|---------------------------------|



G|---------------------------------|---------------------------------|
D|---------------------------------|---------------------------------|
A|-------------7---7---7---7---7---|/7---7---7---7---7---7---7---7---|
E|-0---0---------------------------|---------------------------------|



G|---------------------------------|---------------------------------|
D|-7---7---7---7---7---7---7---7-7-|-9---9---9---9---9---9---9---9---|
A|---------------------------------|---------------------------------|
E|---------------------------------|---------------------------------|



CHORUS


G|---------------------------------|---------------------------------|
D|-10--10--10--10--10--10--10--10--|---------------------------------|
A|---------------------------------|-7---7---7---7---7-------7---7---|
E|---------------------------------|---------------------7-----------|



G|---------------------------------|---------------------------------|
D|---------------------------------|---------------------------------|
A|-8---8---8---8---8---8---8---8---|-7-------------------------------|
E|---------------------------------|-----4---5---7-------------------|



G|-----------------------------|
D|-----------------------------|
A|-----------------------------|
E|-------------------------0---|



VERSE


G|---------------------------------|---------------------------------|
D|---------------------------------|---------------------------------|
A|-----------------7---7---7---7---|-7---7---7---7---7---7---7---7---|
E|-0---0---0---0-------------------|---------------------------------|



G|---------------------------------|---------------------------------|
D|-7---7---7---7---9---9---9---9---|---------------------------------|
A|---------------------------------|-7---7---7---7---7---7---7---7---|
E|---------------------------------|---------------------------------|



G|---------------------------------|
D|-----9---9---9---9---9---9---9---|
A|-7-------------------------------|
E|---------------------------------|



VERSE


G|---------------------------------|---------------------------------|
D|---------------------------------|---------------------------------|
A|---------------------------------|-7---7---7---7---7---7---7---7---|
E|-0---0---0---0---0---0---0---0---|---------------------------------|



G|---------------------------------|---------------------------------|
D|-7---7---7---7---7---7---7---7---|-9---9---9---9---9---9---9---9---|
A|---------------------------------|---------------------------------|
E|---------------------------------|---------------------------------|



G|---------------------------------|---------------------------------|
D|---------------------------------|---------------------------------|
A|-----------------------------7---|---------------------------------|
E|-0---0---0---0---0---0---0-------|-0---0---0---0---0---0---0---0---|



G|---------------------------------|---------------------------------|
D|-7---7---7---7---7---7---7---7---|-9---9---9---9---9---9---9---9---|
A|---------------------------------|---------------------------------|
E|---------------------------------|---------------------------------|



CHORUS


G|---------------------------------|---------------------------------|
D|---------------------------------|-2---2---2---2---2---2-------2---|
A|-3---3---3---3---3---3---3---3---|-------------------------2-------|
E|---------------------------------|---------------------------------|



G|---------------------------------|---------------------------------|
D|-3---3---3---3---3---3---3---3---|-2-------------------------------|
A|---------------------------------|-------------2-------------------|
E|---------------------------------|---------------------------------|



G|---------------------------------|
D|---------------------------------|
A|---------------------------------|
E|---------------------------------|



VERSE


G|---------------------------------|---------------------------------|
D|---------------------------------|---------------------------------|
A|-----------------7---7---7---7---|-7---7---7---7---7---7---7---7---|
E|-0---0---0---0-------------------|---------------------------------|



G|---------------------------------|---------------------------------|
D|-7---7---7---7---9---9---9---9---|---------------------------------|
A|---------------------------------|-7---7---7---7---7---7---7---7---|
E|---------------------------------|---------------------------------|



G|---------------------------------|---------------------------------|
D|-7---7---7---7---9---9---9---9---|---------------------------------|
A|---------------------------------|-7---7---7---5---5---3---3-------|
E|---------------------------------|-----------------------------0---|



G|---------------------------------|---------------------------------|
D|---------------------------------|---------------------------------|
A|-7---7---7---7---7-------7-------|-8---8---8---8---8---8---8---8---|
E|---------------------7-------7---|---------------------------------|



G|---------------------------------|---------------------------------|
D|---------------------------------|---------------------------------|
A|-7-------------------------------|---------------------------------|
E|-----------------7---------------|-------------------------0-------|



VERSE


G|---------------------------------|---------------------------------|
D|---------------------------------|---------------------------------|
A|-----------------------------7---|---------7---7---7---7---7---7---|
E|-0---0---0---0---0---0---0-------|-0---0---------------------------|



G|---------------------------------|---------------------------------|
D|-7---7---7---7---9---9---9---9---|---------------------------------|
A|---------------------------------|-7---7---7---7---7---7---7---7---|
E|---------------------------------|---------------------------------|



OUTRO


G|---------------------------------|---------------------------------|
D|-7---7---7---7---9---9---9---9---|---------------------------------|
A|---------------------------------|-7---7---7---7---7---7---7---7---|
E|---------------------------------|---------------------------------|



G|---------------------------------|---------------------------------|
D|-7---7---7---7---9---9-------9-9-|-10--10--10--10--10--10--10--10--|
A|---------------------------------|---------------------------------|
E|---------------------------------|---------------------------------|



G|---------------------------------|---------------------------------|
D|-10--10--10--10--10--10--10--10--|---------------------------------|
A|---------------------------------|---------------------------------|
E|---------------------------------|-0-------------------------------|
            
Hard to play? Try these video lessons and learn fast. | Correct




comments powered by Disqus
↑ Back to top | Tablatures and chords are parodies/interpretations of the original songs. You may use it for private study, scholarship, research or language learning purposes only