» » »

Beatles, Clarabella Bass tabs (ver.1)

Artists:  A B C D E F G H I J K L M N O P Q R S T U V W X Y Z # 

Clarabella Bass tabs (ver.1)

Beatles Tabs
Rating:
0/5 (0 votes)
Clarabella lessons Tabs too difficult? Try these video lessons and learn fast
                CLARABELLA

Written by Frank Pingatore

VERSE

Well, I got a baby...
  t=136
G|---------------------------------|---------------------------------|
D|-5-------------------------------|---------------------------------|
A|---------------------------------|---------------------------------|
E|---------------------------------|---------------------------------|

G|---------------------------------|---------------------------------|
D|-5-------------------------------|---------------------------------|
A|---------------------------------|---------------------------------|
E|---------------------------------|---------------------------------|

G|---------------------------------|---------------------------------|
D|-5-------------------------------|---------------------------------|
A|---------------------------------|---------------------------------|
E|---------------------------------|---------------------------------|

CHORUS

G|---------------------------------|---------------------------------|
D|-------------5---5---------------|-------------5---5---------------|
A|-3-------------------------------|-3-------------------------------|
E|---------------------------------|---------------------------------|

G|---------------------------------|---------------------------------|
D|-5-----------5-------------------|-5-----------5-------------------|
A|-----------------5---------------|-----------------5---------------|
E|---------------------------------|---------------------------------|

G|---------------------------------|---------------------------------|
D|-------------7---7---------------|-------------5---5---------------|
A|-5-------------------------------|-3-------------------------------|
E|---------------------------------|---------------------------------|

G|---------------------------------|---------------------------------|
D|-5-----------5-------------------|---------------------------------|
A|-----------------5---------------|-5-------5-------5-------5-------|
E|---------------------------------|---------------------------------|

VERSE

G|---------------------------------|---------------------------------|
D|-5-------------------------------|-5-------------------------------|
A|---------------------------------|---------------------------------|
E|---------------------------------|---------------------------------|

G|---------------------------------|---------------------------------|
D|-5-------------------------------|-5-5-----5-5-----5-5-----5-5-----|
A|---------------------------------|---------------------------------|
E|---------------------------------|---------------------------------|

CHORUS

G|---------------------------------|---------------------------------|
D|-------------5---5---------------|-------------5---5---------------|
A|-3-------------------------------|-3-------------------------------|
E|---------------------------------|---------------------------------|

G|---------------------------------|---------------------------------|
D|-5-----------5-------------------|-5-----------5-------------------|
A|-----------------5---------------|-----------------5---------------|
E|---------------------------------|---------------------------------|

G|---------------------------------|---------------------------------|
D|-------------7---7---------------|-------------5---5---------------|
A|-5-------------------------------|-3-------------------------------|
E|---------------------------------|---------------------------------|

G|---------------------------------|---------------------------------|
D|-5-----------5---5---------------|---------------------------------|
A|---------------------------------|-5-------5-------5-------5-------|
E|---------------------------------|---------------------------------|

HARMONICA SOLO

G|---------------------------------|---------------------------------|
D|-5-------------------------------|-5-------------------------------|
A|-----------------5---5-----------|-----------------5-------5-------|
E|---------------------------------|---------------------------------|

G|---------------------------------|---------------------------------|
D|-5-------------------------------|-5-------------------------------|
A|-----------------5---5-----------|-----------------5---5-----------|
E|---------------------------------|---------------------------------|

G|---------------------------------|---------------------------------|
D|-----------------5---5-----------|-----------------5---5-----------|
A|-3-----------3-------------------|-3-----------3-------------------|
E|---------------------------------|---------------------------------|

G|---------------------------------|---------------------------------|
D|-5-----------5-------------------|-5-----------5-------------------|
A|-----------------5---------------|-----------------5-------5-------|
E|---------------------------------|---------------------------------|

G|---------------------------------|---------------------------------|
D|-----------------7---7-----------|-----------------5---5-----------|
A|-5-------------------------------|-3-------------------------------|
E|---------------------------------|---------------------------------|

G|---------------------------------|---------------------------------|
D|-5-------------------------------|-5-------5-------5-------5-------|
A|-----------------5---5-----------|---------------------------------|
E|---------------------------------|---------------------------------|

VERSE

G|---------------------------------|---------------------------------|
D|-5-------------------------------|-5-------------------------------|
A|-------------5---5---------------|-------------5---5---------------|
E|---------------------------------|---------------------------------|

G|---------------------------------|---------------------------------|
D|-5-------------------------------|-5-------------------------------|
A|-------------5---5---------------|-------------5---5---------------|
E|---------------------------------|---------------------------------|

G|---------------------------------|---------------------------------|
D|-------------5---5---------------|-------------5---5---------------|
A|-3-------------------------------|-3-------------------------------|
E|---------------------------------|---------------------------------|

G|---------------------------------|---------------------------------|
D|-5-------------------------------|-5-------------------------------|
A|-------------5---5---------------|-------------5---5---------------|
E|---------------------------------|---------------------------------|

G|---------------------------------|---------------------------------|
D|-------------7---7---------------|-------------5---5---------------|
A|-5-------------------------------|-3-------------------------------|
E|---------------------------------|---------------------------------|

G|---------------------------------|---------------------------------|
D|-5-------------------------------|---------------------------------|
A|-------------5---5---------------|-5-------5-------5-------5-------|
E|---------------------------------|---------------------------------|

VERSE

G|---------------------------------|---------------------------------|
D|-5-------------------------------|-5-------------------------------|
A|---------------------------------|---------------------------------|
E|---------------------------------|---------------------------------|

G|---------------------------------|---------------------------------|
D|-5-------------------------------|-5-----5-5-----5-5-----5-5-------|
A|---------------------------------|---------------------------------|
E|---------------------------------|---------------------------------|

CHORUS

G|---------------------------------|---------------------------------|
D|-----------------5---------------|-------------5---5---------------|
A|-3-------------------------------|-3-------------------------------|
E|---------------------------------|---------------------------------|

G|---------------------------------|---------------------------------|
D|-5-----------5-------------------|-5-----------5-------------------|
A|-----------------5---------------|-----------------5---------------|
E|---------------------------------|---------------------------------|

G|---------------------------------|---------------------------------|
D|-------------7---7---------------|-------------5---5---------------|
A|-5-------------------------------|-3-------------------------------|
E|---------------------------------|---------------------------------|

G|---------------------------------|---------------------------------|
D|-5-----------5---5-------5-------|-5-------5-------5-------5-------|
A|---------------------------------|---------------------------------|
E|---------------------------------|---------------------------------|

GUITAR SOLO

G|---------------------------------|---------------------------------|
D|-5-----------5-------------------|-5-----------5-------------------|
A|-----------------5---5-----------|-----------------5---5-----------|
E|---------------------------------|---------------------------------|

G|---------------------------------|---------------------------------|
D|-5-----------5-------------------|-5-------5-------5-------5-------|
A|-----------------5---------------|---------------------------------|
E|---------------------------------|---------------------------------|

G|---------------------------------|---------------------------------|
D|-----------------5---5-----------|-----------------5-------5-------|
A|-3---3---------------------------|-3-------------------------------|
E|---------------------------------|---------------------------------|

G|---------------------------------|---------------------------------|
D|-5-----------5-------------------|-5-----------------------5-------|
A|-----------------5---5-----------|-----------------5---------------|
E|---------------------------------|---------------------------------|

G|---------------------------------|---------------------------------|
D|-----------------7---7-----------|-----------------5---5-----------|
A|-5-------------------------------|-3-------------------------------|
E|---------------------------------|---------------------------------|

G|---------------------------------|---------------------------------|
D|-5-----------5-------------------|---------------------------------|
A|-----------------5---------------|-5-------5-------5-------5-------|
E|---------------------------------|---------------------------------|

VERSE

G|---------------------------------|---------------------------------|
D|-5---5---------------------------|-5---5---------------------------|
A|-----------------5---5-----------|-----------------5---5-----------|
E|---------------------------------|---------------------------------|

G|---------------------------------|---------------------------------|
D|-5---5---------------------------|-5-------3-------2---------------|
A|-----------------5---5-----------|-------------------------5-------|
E|---------------------------------|---------------------------------|

G|---------------------------------|---------------------------------|
D|-----------------5---5-----------|-----------------5-------5-------|
A|-3-------------------------------|-3-------------------------------|
E|---------------------------------|---------------------------------|

G|---------------------------------|---------------------------------|
D|-5---5---------------------------|-5---5-------------------5-------|
A|-----------------5---5-----------|-----------------5---------------|
E|---------------------------------|---------------------------------|

G|---------------------------------|---------------------------------|
D|-----------------7---7-----------|-----------------5---5-----------|
A|-5---5---------------------------|-3---3---------------------------|
E|---------------------------------|---------------------------------|

G|---------------------------------|---------------------------------|
D|-5---------------5-------5-------|-5-------5---------------5-------|
A|-----5---------------------------|---------------------------------|
E|---------3-----------------------|---------------------------------|
            

comments powered by Disqus
↑ Back to top | Beatles Bass for Clarabella. Lyrics for acoustic guitar and electric guitar. Tablatures and chords are parodies/interpretations of the original songs. You may use it for private study, scholarship, research or language learning purposes only