» » »

Cayenne Tabs (ver.1)

Artists:  A B C D E F G H I J K L M N O P Q R S T U V W X Y Z # 

Cayenne Tabs (ver.1)

Beatles
Rating:
0/5 (0 votes)

Hard to play? Try these video lessons and learn fast.
                -------------------------------------------------------------------------------
The Beatles- Cayenne
(McCartney)
Anthology 1
-------------------------------------------------------------------------------

 Em                                          Am            Em
e|---12----------------12-12-12----------------------------------------------|
B|-----15-14-12--12-14----------15-14-12--12----10----10---------------------|
G|-------------------------------------------------------9-12-12-11-9--------|
D|-------------------------------------------10----10------------------------|
A|---------------------------------------------------------------------------|
E|---------------------------------------------------------------------------|

       B7                       Em
e|---------------------------------------------------------------------------|
B|---------------------------------------------------------------------------|
G|--12-12-11----11--12-11----------------------------------------------------|
D|-----------13-----------14-12-14-------------------------------------------|
A|---------------------------------------------------------------------------|
E|---------------------------------------------------------------------------|
               
                                  Am          Em             B7          Am
e|---------------------------------------------------------------------------|
B|---------------------------------------------------------------------------|
G|-----------------------------0-1-2-2-/5-2-5-4---4-5-4-5/7\5-4-4-5-4-2-4-2--|
D|-----------------------2-4-2------------------5----------------------------|
A|---2-4-5-4---2-4-5-4-5-----------------------------------------------------|
E|---------------------------------------------------------------------------|

             Em
e|---------------------------------------------------------------------------|
B|---------------------------------------------------------------------------|
G|-----------2-4-2-1-0----0-2-2b3r2-0---0---0---2b3r2-0---0-2-2b3r2-0--------|
D|-5-4-2-4-2------------2-------------2---2---2---------2-------------2------|
A|---------------------------------------------------------------------------|
E|---------------------------------------------------------------------------|

                          Am                           Em
e|---------------------------------------------------------------------------|
B|---------------------------------------------------------------------------|
G|--2-0-2-0-2b3r2-0-2-2-2-2-2-0-2-2b3r2-0---0-2b3r2-0---2-4-2-0-2br3r2-0-----|
D|----------------------------------------2-----------2------------------2---|
A|---------------------------------------------------------------------------|
E|---------------------------------------------------------------------------|

                  B7                 Am                  Em
e|---------------------------------------------------------------------------|
B|---------------------------------------------------------------------------|
G|--0---2b3r2-0---2b3r2-0---2b3r2-0---2b3r2-0---2b3r2-0---2b3r2-0---2b3r2-0--|
D|----2---------2---------2---------2---------2---------2---------2---------2|
A|---------------------------------------------------------------------------|
E|---------------------------------------------------------------------------|

                                                                        Am... Fade out
e|-12-------------------12-------------12-------------12---------------------|
B|----14-12----15-14-12----15-14-12-15----15-14-12-------15-14-12----------10|
G|----------14-------------------------------------14-------------14-13------|
D|----------------------------------------------------------------------10---|
A|---------------------------------------------------------------------------|
E|---------------------------------------------------------------------------|
            
Hard to play? Try these video lessons and learn fast. | Correct




comments powered by Disqus
↑ Back to top | Tablatures and chords are parodies/interpretations of the original songs. You may use it for private study, scholarship, research or language learning purposes only