» » »

Carry That Weight Bass tabs (ver.1)

Artists:  A B C D E F G H I J K L M N O P Q R S T U V W X Y Z # 

Carry That Weight Bass tabs (ver.1)

Beatles
Rating:
0/5 (0 votes)

Tabs too difficult? Try these video lessons and learn fast.
                -------------------------------------------------------------------------------
			     Carry That Weight - The Beatles
-------------------------------------------------------------------------------
This is off of their masterpiece Abbey Road.
Tuning: standard

Chorus:
This rhythm comes up a few times. It's 1  &  2 e &  3  &  4 e &
G|---5--------------5------------|-----------------------------------------|
D|-------------5-------------5---|--5-------------5------------------------|
A|------3--5s7---------3--5s7----|----------2-5-----------2-5--------------|
E|-------------------------------|-----3--3----------3--3------------------|

G|------------------------------|-------------------------------|
D|----------2-5----------2-5----|----------2-5----------2-5-----|
A|--3--3--3------3--3--3--------|--3--3--3------3--3--3---------|
E|------------------------------|-------------------------------|

        Now repeat first the two measures WITHOUT the last measure

0:24
G|------------------|-------|----------------------|------|
D|--Quarter notes---|-5s7---|--5h7----------2--3--4|-5----|
A|---3---3---2---2--|-------|---------5------------|------|
E|------------------|-------|----------------------|------|
Guitar solo-->
G|----------------------5-|---------|-------------------------|-------|
D|--------------5---5-7---|---------|-----------------4--5--6-|-7-----|
A|-3---5-5s7--------------|-8-----8-|--------5--6--7----------|-------|
E|------------------------|---------|--7--8-------------------|----5\-|
  "I never..."
G|---------|-----------------|----------|-------------------5------|
D|-/7------|-5h7-----------7-|-5--------|------------5--5h7--------|
A|---------|------5--5-5h8---|----------|-3---5--7-----------------|
E|---------|-----------------|----------|--------------------------|
 "And in the ..."
G|----------|-----------------------|---------|--------------------------|
D|----------|----------------4--5--6|-7-------|-----5--------5-5-5-3-3---|
A|-8-----8--|-------5--6--7---------|---------|--------------------------|
E|----------|-7--8------------------|-------5-|--------------------------|

Now play the chorus 

G|-----------|---------------|-------------|-----------------------------|
D|-----------|---------------|-------------|--7------7-------------------|
A|-3---2---2-|-0----0/12--12\|--3----2----2|-----------------------------|
E|-----------|---------------|-------------|-----------------------------|
            
Tabs too difficult? Try these video lessons and learn fast.


comments powered by Disqus
↑ Back to top | Tablatures and chords are parodies/interpretations of the original songs. You may use it for private study, scholarship, research or language learning purposes only