» » »

Beatles, Carol Bass tabs (ver.1)

Artists:  A B C D E F G H I J K L M N O P Q R S T U V W X Y Z # 

Carol Bass tabs (ver.1)

Beatles Tabs
 Rating:
4/5 (4 votes)
Carol lessons Tabs too difficult? Try these video lessons and learn fast
1
                CAROL

Written by Chuck Berry

INTRO
  t=167
G|---------------------------------|-7-------------------------------|
D|-7-------------------------------|---------------------------------|
A|---------------------------------|---------------------------------|
E|---------------------------------|---------------------------------|

G|---------------------------------|---------------------------------|
D|-7-------7-------7-------7-------|-7-------------------------------|
A|---------------------------------|---------------------------------|
E|---------------------------------|---------------------------------|

VERSE

G|---------------------------------|---------------------------------|
D|-----------------7---------------|-----------------7---------------|
A|-5---------------------------4---|-5---------------------------7---|
E|---------------------------------|---------------------------------|

G|---------------------------------|---------------------------------|
D|-7-------------------------------|-7-----------------------7-------|
A|-----------------7-----------7---|-----------------7---------------|
E|---------------------------------|---------------------------------|

G|---------------------------------|---------------------------------|
D|-----------------9---------------|-----------------7---------------|
A|-7-------------------------------|-5-------------------------------|
E|---------------------------------|---------------------------------|

G|---------------------------------|---------------------------------|
D|-7-------------------------------|-7-----------------------7-------|
A|-----------------7-----------7---|-----------------7---------------|
E|---------------------------------|---------------------------------|

VERSE

G|---------------------------------|---------------------------------|
D|---------------------------------|-------------------------4---6---|
A|-----------------7---------------|-----------------7---7-----------|
E|-5-------------------------------|-5-------------------------------|

G|---------------------------------|---------------------------------|
D|---------------------------------|-7-----------------------4---6---|
A|-----------------7-----------7---|-----------------7---7-----------|
E|-5-------------------------------|---------------------------------|

G|---------------------------------|---------------------------------|
D|---------------------------------|-------------------------4---6---|
A|-----------------7---------------|-----------------7---7-----------|
E|-5-----------5-------------------|-5-----------5-------------------|

G|---------------------------------|---------------------------------|
D|---------------------------------|---------------------------------|
A|-----------------7---------------|-----------------7---------------|
E|-5-----------5-------------------|-5-----------5-----------5-------|

G|---------------------------------|---------------------------------|
D|-----------------7---------------|-----------------7---------------|
A|-5-----------5---------------4---|-5-----------5-----------5-------|
E|---------------------------------|---------------------------------|

G|---------------------------------|---------------------------------|
D|-----------------7---------------|-----------------7---------------|
A|-5---------------------------4---|-5-----------5---------------7---|
E|---------------------------------|---------------------------------|

G|---------------------------------|---------------------------------|
D|-7-----------7-------------------|-7-----------7-----------7-------|
A|-----------------7-----------7---|-----------------7---------------|
E|---------------------------------|---------------------------------|

G|---------------------------------|---------------------------------|
D|---------------------------------|---------------------------------|
A|-----------------7---------------|-----------------7---------------|
E|-5-------------------------------|-5-----------5-----------5-------|

G|---------------------------------|---------------------------------|
D|-----------------9---------------|-----------------9---------------|
A|-7-----------7---------------6---|-7-----------7---------------6---|
E|---------------------------------|---------------------------------|

G|---------------------------------|---------------------------------|
D|-----------------9---------------|-----------------9-------4---6---|
A|-7-----------7---------------6---|-7-----------7-------7-----------|
E|---------------------------------|---------------------------------|

G|---------------------------------|---------------------------------|
D|-7-------------------------------|-7-----------7-----------4---6---|
A|-----------------7-----------7---|-----------------7---------------|
E|---------------------------------|---------------------------------|

G|---------------------------------|---------------------------------|
D|-7-----------7---------------6---|-7-----------7-------------------|
A|-----------------7---------------|-----------------7---------------|
E|---------------------------------|---------------------------------|

INTERLUDE

G|---------------------------------|-7-------------------------------|
D|-7-------------------------------|---------------------------------|
A|---------------------------------|---------------------------------|
E|---------------------------------|---------------------------------|

G|---------9-------9-------9-------|-9-------------------------------|
D|-7-----------7-------7-------7---|-----7-----------7\--------------|
A|---------------------------------|---------------------------------|
E|---------------------------------|---------------------------------|

VERSE

G|---------------------------------|---------------------------------|
D|-----------------7---------------|-----------------7-------4---6---|
A|-5---------------------------4---|-5-------------------7-----------|
E|---------------------------------|---------------------------------|

G|---------------------------------|---------------------------------|
D|-7-------------------------------|-7-----------------------7-------|
A|-----------------7-----------7---|-----------------7---------------|
E|---------------------------------|---------------------------------|

G|---------------------------------|---------------------------------|
D|-----------------9---------------|---------------------------------|
A|-7-------------------------------|-5---------------------------7---|
E|---------------------------------|-----------------5---------------|

G|---------------------------------|---------------------------------|
D|---------------------------------|---------------------------------|
A|---------4-------7-------4-------|-7-----------------------7-------|
E|-5-------------------------------|-----------------7---------------|

GUITAR SOLO

G|---------------------------------|-7-------------------------------|
D|-7-------------------------------|---------------------------------|
A|---------------------------------|---------------------------------|
E|---------------------------------|---------------------------------|

G|---------------------------------|---------------------------------|
D|/7------/7------/7------/7-------|/7-------------------------------|
A|---------------------------------|---------------------------------|
E|---------------------------------|---------------------------------|

G|---------------------------------|---------------------------------|
D|---------4-------7-------4-------|-------------4---7-------4-------|
A|-5-------------------------------|-5-------------------------------|
E|---------------------------------|---------------------------------|

G|---------------------------------|---------------------------------|
D|---------------------------------|-7-------5-------4---------------|
A|---------4-------7-------4-------|-------------------------5-------|
E|-5-------------------------------|---------------------------------|

G|---------------------------------|---------------------------------|
D|---------6-------9-------6-------|---------4-------7-------4-------|
A|-7-------------------------------|-5-------------------------------|
E|---------------------------------|---------------------------------|

G|---------------------------------|---------------------------------|
D|---------------------------------|---------------------------------|
A|---------4-------7-------4-------|-7-----7-7-----7-7-----7-7-------|
E|-5-------------------------------|---------------------------------|

VERSE

G|---------------------------------|---------------------------------|
D|---------------------------------|-------------------------4---6---|
A|-----------------7---------------|-----------------7---------------|
E|-5---------------------------4---|-5-----------5-------------------|

G|---------------------------------|---------------------------------|
D|---------------------------------|---------------------------------|
A|-----------------7---------------|-----------------7---------------|
E|-5---------------------------4---|-5-----------------------5-------|

G|---------------------------------|---------------------------------|
D|---------------------------------|-------------------------4---6---|
A|-----------------7---------------|-----------------7---------------|
E|-5-------------------------------|-5-------------------------------|

G|---------------------------------|---------------------------------|
D|---------------------------------|---------------------------------|
A|-----------------7---------------|-7-------7-------7-------7-------|
E|-5---------------------------5---|---------------------------------|

G|---------------------------------|---------------------------------|
D|-----------------7---------------|-----------------7---------------|
A|-5---------------------------4---|-5-----------5-----------5-------|
E|---------------------------------|---------------------------------|

G|---------------------------------|---------------------------------|
D|-----------------7---------------|-----------------7---------------|
A|-5-----------5-----------5-------|-5-----------5-----------5-------|
E|---------------------------------|---------------------------------|

G|---------------------------------|---------------------------------|
D|---------------------------------|-------------------------4---6---|
A|-----------------7---------------|-----------------7---------------|
E|-5-------------------------------|-5-------------------------------|

G|---------------------------------|---------------------------------|
D|---------------------------------|---------------------------------|
A|-----------------7---------------|-----------------7---------------|
E|-5-------------------------------|-5-----------------------5-------|

G|---------------------------------|---------------------------------|
D|-----------------9---------------|-----------------9---------------|
A|-7-----------7---------------6---|-7-----------7---------------6---|
E|---------------------------------|---------------------------------|

G|---------------------------------|---------------------------------|
D|-----------------9---------------|-----------------9---------------|
A|-7-----------7---------------6---|-7-----------7---------------7---|
E|---------------------------------|---------------------------------|

G|---------------------------------|---------------------------------|
D|---------------------------------|---------------------------------|
A|-----------------7---------------|-----------------7-----------7---|
E|-5-------------------------------|-5-------------------------------|

G|---------------------------------|---------------------------------|
D|---------------------------------|---------------------------------|
A|-----------------7---------------|-----------------7---------------|
E|-5-------------------------------|-5-----------5-----------5-------|

INTERLUDE

G|---------------------------------|-7-------------------------------|
D|-7-------------------------------|---------------------------------|
A|---------------------------------|---------------------------------|
E|---------------------------------|---------------------------------|

G|---------------------------------|---------------------------------|
D|-7-------7-------7-------7-------|-7---7---7---7---7---7---7---7---|
A|---------------------------------|---------------------------------|
E|---------------------------------|---------------------------------|

OUTRO

G|---------------------------------|---------------------------------|
D|---------------------------------|---------------------------------|
A|-0-----------0-------------------|-0-----------0---------------7---|
E|-----------------0-----------0---|-----------------0---------------|

G|---------------------------------|---------------------------------|
D|-7-----------7-------------------|-7-----------7-----------7---6---|
A|-----------------7-----------7---|-----------------7---------------|
E|---------------------------------|---------------------------------|

G|---------------------------------|---------------------------------|
D|-----------------9---------------|-----------------7---------------|
A|-7-----------7---------------4---|-5-----------5---------------7---|
E|---------------------------------|---------------------------------|

G|---------------------------------|---------------------------------|
D|-7-----------7-------------------|-7-------5-------4---------------|
A|-----------------7-----------7---|-------------------------5-------|
E|---------------------------------|---------------------------------|

G|---------------------------------|---------------------------------|
D|---------------------------------|---------------------------------|
A|-7----------5---7----------------|-5-----------5---5---------------|
E|---------------------------------|---------------------------------|

G|---------------------------------|---------------------------------|
D|-7---7---7---7---7---------------|-7-----------7-----------7-------|
A|-----------------------------7---|-----4---7-----------------------|
E|---------------------------------|---------------------------------|
            
Submit corrections

comments powered by Disqus
↑ Back to top | Beatles Bass for Carol. Lyrics for acoustic guitar and electric guitar. 1 Tablatures and chords are parodies/interpretations of the original songs. You may use it for private study, scholarship, research or language learning purposes only