>
 >
Cant Buy Me Love 2

Cant Buy Me Love 2 Guitar Tabs

Beatles - Cant Buy Me Love 2 chords, tabs, tablatures, lyrics

Guitar lessons | Add/correct | Request | Top 50 tabs Artists:  A B C D E F G H I J K L M N O P Q R S T U V W X Y Z 0-9

Cant Buy Me Love 2 Guitar Tabs – Beatles

CD, Sheet music, Poster

Do you like Cant Buy Me Love 2? Share with your friends now
Bass TabsBass Tabs v2TabsTabs v2Ukulele

Sounds good to me. =D

e|-------------------------------|------------------------------|
B|-------------------------------|------------------------------|
G|8h10--10b12-12-12-10-8-8-10-10-|-----10b12-12-12-10-8---------|
D|-------------------------------|------------------------------|
A|-------------------------------|------------------------------|
D|-------------------------------|------------------------------|


e|-------------------------------|------------------------------|
B|-------------------------------|------------------------------|
G|-------------------------------|--2-----2-2------8h10b12-12-12|
D|--10--8------------------------|--1--1--1-1-1-----------------|
A|------------10--8--------------|-----3------3-----------------|
D|------------------------11-----|------------------------------|


e|-------------------------------|------------------------------|
B|-------------------------------|------------------------------|
G|----10-8-----------------------|------------------------------|
D|-----------10-8----------------|------------------------------|
A|------------------10-8---------|-10-10----10-8-8------8-------|
D|-------------------------11----|------------------11-----11---|


e|-------------------------------|------------------------------|
B|-------------------------------|------------------------------|
G|-------------------------------|------------------------------|
D|---------8---------------------|------------------------------|
A|-----10-----10-8---------------|------------------------------|
D|-8---------------11---8--8~~~~~|------------------------------|





Comments


Popular Beatles tabs & chords
Free As A Bird 1 Bass Tabs
Glass Onion Bass Tabs
Lucy In The Sky With Diamonds 2 Bass Tabs
Baby Youre A Rich Man 4 Chords
Girl 5 Chords
In My Life Chords
A Hard Days Night 4 Tabs
Birthday 4 Tabs
Cry For A Shadow 1 Tabs
Let It Be 4 Tabs


Song lyrics



↑ Back to top | Tablatures and chords are parodies/interpretations of the original songs. You may use it for private study, scholarship, research or language learning purposes only
© 2014 AZChords.com Contact us | Privacy policy | DMCA | Add/correct tabs | Request tabs | Top 50 tabs