» » »

Can Buy Me Love Tabs (ver.1)

Artists:  A B C D E F G H I J K L M N O P Q R S T U V W X Y Z # 

Can Buy Me Love Tabs (ver.1)

Beatles
Rating:
0/5 (0 votes)

Hard to play? Try these video lessons and learn fast.
                Can't Buy Me Love by Beatles


              Em    Am    Em  Am 
Can't buy me love,      love,   
              Dm7  G7
Can't buy me love.


     C7                                         
I'll buy you a diamond ring my friend, if it makes you feel alright.
     F7                                 C7
I'll get you anything my friend, if it makes you feel alright.
      G7              F7                                       C7
Cause I don't care too much for money, money can't buy me love.


      C7                                       
I'll give you all I've got to give, if you say you love me too.
  F7                                     C7
I may not have a lot to give but what I got I'll give to you.
G7              F7                                   C7
I don't care too much for money, money can't buy me love.   
    

              Em  Am     C7
Can't buy me love,    everybody tells me so. 
              Em  Am Dm7         G7
Can't buy me love,   no, no, no, no.


 C7                                        
Say you don't need no diamond rings and I'll be satisfied.
F7                                             C7
Tell me that you want the kind of things that money just can't buy.
G7              F7                                   C7
I don't care too much for money, money can't buy me love.


[solo: C7    F7    C7    G7   F7     C7]

|-----------------------------------------------------------------|
|----------8-------8--------8-------8-----------------------------|
|------8--10b(12)-10b(12)--10b(12)-10b(12)b10--8-----8------------|
|--10---------------------------------------------10--------------|
|-----------------------------------------------------------------|
|-----------------------------------------------------------------|

|-----------------------------------------------------------------|
|--8-------8--------8-------8-------------------------------------|
|-10b(12)-10b(12)--10b(12)-10b(12)b10--8--------------------------|
|-----------------------------------------10--8-------------------|
|------------------------------------------------10--8------------|
|-------------------------------------------------------11--------|

|-----------------------------------------------------------------|
|-----------------------8-------8--------8-------8----------------|
|--8--8--8--8--8--8----10b(12)-10b(12)--10b(12)-10b(12)b10--8-----|
|--7--7--7--7--7--7-------------------------------------------10--|
|--8--8--8--8--8--8-----------------------------------------------|
|-----------------------------------------------------------------|

|-----------------------------------------------------------------|
|-----------------------------------------------------------------|
|-----------------------------------------------------------------|
|----------------------------------------8------------------------|
|--8/10--8/10--10\8--8/10\8--6-----8/10----10/8--6----------------|
|-------------------------------8-------------------8--6--8-------|


             Em  Am     C7
Can't buy me love,    everybody tells me so.
             Em  Am   Dm7         G7
Can't buy me love,    no, no, no, no.


C7                    
Say you don't need no diamond rings and I'll be satisfied.
F7                                             C7
Tell me that you want the kind of things that money just can't buy.
G7              F7                                   C7
I don't care too much for money, money can't buy me love.


              Em  Am    Em Am 
Can't buy me love,     love, 
             Dm7  G7  C7
Can't buy me love, oh.
            
Hard to play? Try these video lessons and learn fast. | Correct




comments powered by Disqus
↑ Back to top | Tablatures and chords are parodies/interpretations of the original songs. You may use it for private study, scholarship, research or language learning purposes only