>
 >
Blackbird Easy

Blackbird Easy Guitar Tabs

Beatles - Blackbird Easy chords, tabs, tablatures, lyrics

Guitar lessons | Add/correct | Request | Top 50 tabs Artists:  A B C D E F G H I J K L M N O P Q R S T U V W X Y Z 0-9

Blackbird Easy Guitar Tabs – Beatles

CD, Sheet music, Poster

Do you like Blackbird Easy? Share with your friends now
Tabs
Intro:

E|-----------------------------------------------|
B|-0-----1-----3-----12---------12--12--------12-|
G|----0-----0-----0-----0--------------0---------|
D|-----------------------------------------------|
A|-------0-----2-----10-----10------10-----10----|
E|-3---------------------------------------------|

Part I:

E|-----------------------------------------------|
B|-0-----1-----3-----12---------12--12--------12-|
G|----0-----0-----0-----0--------------0---------|
D|-----------------------------------------------|
A|-------0-----2-----10-----10------10-----10----|
E|-3---------------------------------------------|

1. Blackbird singing in the....night
2. Blackbird singing in the....night

E|--------------------------------|------------------|
B|-5-----8-----7-----10-----8-----|---8--8-------8---|
G|----0-----0-----0------0-----0--|---------0--------|
D|--------------------------------|------------------|
A|-3-----4-----5-----6------7-----|7-----6-----6-----|
E|--------------------------------|------------------|

1. Take these broken wings...fly  |
2. Take these sunken eyes...see   |

E|-------------------------------------|
B|-7-----8-----5-------5--4--------4---|
G|----0-----0-----0----------0---------|
D|-------------------------------------|
A|-5-----7-----3-----3----3-----3------|
E|-------------------------------------|

1. All your life...
2. All your life...

E|-------------------------------------------|
B|-3--------3--2--------2--1--1--------1--0--|
G|----0-----------0--------------0-----------|
D|-------------------------0--0-----0--------|
A|-2-----2-----0-----0-----------------------|
E|----------------------------------------3--|

1. You were only waiting...arise
2. You were only waiting...be free


Part II:
                                        **************
E|-------------------------------------||------------|| You will play 
B|-10-----8-----6-----5-----3--------3-||-5-------5--|| it two times,
G|-----0-----0-----0-----0-----0-------||----0-------|| but ingnore
D|-------------------------------------||------------|| this second
A|-8------7-----5-----3-----1-----1----||-3-----3----|| measure when
E|-------------------------------------||------------|| you repeat it.

1. Blackbird fly                       ||
2. Blackbird fly                       ||


Part III:

E|------------------------------------------------------------|
B|-2--------2--1--------1--0--5--3--2--------2--1--------1--0-|
G|----0-----------0--------------------0-----------0----------|
D|-------------0-----0--------------------------0-----0-------|
A|-1-----1--------------------3--2--0-----0-------------------|
E|-------------------------3--------------------------------3-|

1. Into the light of...black night

Part IV:

E|-----------------------------------------------|
B|-0-----1-----3-----12---------12--12-------12--|
G|----0-----0-----0-----0--------------0---------|
D|-----------------------------------------------|
A|-------0-----2-----10-----10------10----10-----|
E|-3---------------------------------------------|

E|---------------------------------------|
B|12-----12-----12----12-----12----------| After these bar
G|---0------0------0------0--------------| take a short
D|---------------------------------------| break of
A|10-----10-----10----10-----------------| 5 seconds...
E|-------------------------------11\0----|

E|---------------------------------------------|
B|-0-----1-----3-----5-----3-----2-----1-----0-|
G|----0-----0-----0-----0-----0-----0-----0----|
D|-------------------------------------0-------|
A|-------0-----2-----3-----2-----0-------------|
E|-3-----------------------------------------3-|

Song structure:

Intro (1x)
Part I (2x)
Part II (2x)
Part III (1x)
Part IV (1x)
Part I (1x)





Comments


Popular Beatles tabs & chords
All You Need Is Love 3 Bass Tabs
Cry Baby Cry 3 Bass Tabs
And I Love Her 4 Chords
Being For The Benefit Of Mr Kite 2 Chords
You Really Got A Hold On Me Chords
Act Naturally 1 Tabs
Baby It S You Tabs
Bad To Me Tabs
Blackbird Tabs
Free As A Bird Tabs


Song lyrics



↑ Back to top | Tablatures and chords are parodies/interpretations of the original songs. You may use it for private study, scholarship, research or language learning purposes only
© 2014 AZChords.com Contact us | Privacy policy | DMCA | Add/correct tabs | Request tabs | Top 50 tabs