» » »

Beatles, Black Bird Tabs (ver.9)

Artists:  A B C D E F G H I J K L M N O P Q R S T U V W X Y Z # 

Black Bird Tabs (ver.9)

Beatles Tabs
 Rating:
4/5 (4 votes)
Black Bird lessons Tabs too difficult? Try these video lessons and learn fast
                -----------------------------------------------------------------
Black Bird - The Beatles
-----------------------------------------------------------------

**This song goes exactly with the originally recorded version**

This is 100% accurate, I tabbed most of it using a rock and roll guitar book

e|-------------------------------------------------|
B|---0---1---3----12--------12---12---------12-----|
G|-----0---0---0-----0-0-------0----0--0-------0---|
D|-------------------------------------------------|X2
A|-------0---2----10-----10------10------10--------|
E|---3---------------------------------------------|

e|------3-------5-----------------------------------3------|
B|--5-------7--------8-------8---8---------8----7----------|
G|----0---0---0---0----0-0-----0----0-0------0----0---0----|
D|------0-------0-----------------------------------0------|
A|--3-------5--------7-----7-----6-------6------5----------|
E|---------------------------------------------------------|

e|---------------------------------------------------------------|
B|--5-------5---4-------4---3-------3---2-------2----1-------1---|
G|----0-0-----0---0-0-----0---0-0-----0---0-0-----0----0-0-----0-|
D|---------------------------------------------------------------|
A|--3-----3-----3-----3-----2-----2-----0-----0------0-----0-----|
E|---------------------------------------------------------------|

e|--------------------------------------------------|
B|--0-------0----5---3---2-------2---1--0-------0---|
G|----0-0-----0----0---0---0-0-----0------0-0-----0-|
D|--------------------------------------------------|
A|---------------3---2---0-----0-----0--------------|
E|--3-----3-----------------------------3-----3-----|

e|-------------------------------------------------|
B|---0---1---3----12--------12---12---------12-----|
G|-----0---0---0-----0-0-------0----0--0-------0---|
D|-------------------------------------------------|
A|-------0---2----10-----10------10------10--------|
E|---3---------------------------------------------|

e|------3-------5-----------------------------------3------|
B|--5-------7--------8-------8---8---------8----7----------|
G|----0---0---0---0----0-0-----0----0-0------0----0---0----|
D|------0-------0-----------------------------------0------|
A|--3-------5--------7-----7-----6-------6------5----------|
E|---------------------------------------------------------|

e|---------------------------------------------------------------|
B|--5-------5---4-------4---3-------3---2-------2----1-------1---|
G|----0-0-----0---0-0-----0---0-0-----0---0-0-----0----0-0-----0-|
D|---------------------------------------------------------------|
A|--3-----3-----3-----3-----2-----2-----0-----0------0-----0-----|
E|---------------------------------------------------------------|

e|--------------|
B|--0-------0---|
G|----0-0-----0-|
D|--------------|
A|--------------|
E|--3-----3-----|

e|-------------------------------------------|
B|--10---8---7---5---3-------3---5-------5---|
G|-----0---0---0---0---0-0-----0---0-0-----0-|    
D|-------------------------------------------|      
A|--8----7---5---3---1-----1-----3-----3-----|
E|-------------------------------------------|

e|---------------------------------------------------------|
B|--10---8---7---5---3-------3---2-------2-----1-------1---|
G|-----0---0---0---0---0-0-----0---0-0-----0-----0-0-----0-|    
D|---------------------------------------------------------|      
A|--8----7---5---3---1-----1-----0-----0------0------0-----|
E|---------------------------------------------------------|

e|-------------------------------------------------|
B|---0---1---3----12--------12---12---------12-----|
G|-----0---0---0-----0-0-------0----0--0-------0---|
D|-------------------------------------------------|
A|-------0---2----10-----10------10------10--------|
E|---3---------------------------------------------|

e|------3-------5-----------------------------------3------|
B|--5-------7--------8-------8---8---------8----7----------|
G|----0---0---0---0----0-0-----0----0-0------0----0---0----|
D|------0-------0-----------------------------------0------|
A|--3-------5--------7-----7-----6-------6------5----------|
E|---------------------------------------------------------|

e|---------------------------------------------------------------|
B|--5-------5---4-------4---3-------3---2-------2----1-------1---|
G|----0-0-----0---0-0-----0---0-0-----0---0-0-----0----0-0-----0-|
D|---------------------------------------------------------------|
A|--3-----3-----3-----3-----2-----2-----0-----0------0-----0-----|
E|---------------------------------------------------------------|

e|--------------|
B|--0-------0---|
G|----0-0-----0-|
D|--------------|
A|--------------|
E|--3-----3-----|

e|-------------------------------------------|
B|--10---8---7---5---3-------3---5-------5---|
G|-----0---0---0---0---0-0-----0---0-0-----0-|    
D|-------------------------------------------|      
A|--8----7---5---3---1-----1-----3-----3-----|
E|-------------------------------------------|





e|---------------------------------------------------------|
B|--10---8---7---5---3-------3---2-------2-----1-------1---|
G|-----0---0---0---0---0-0-----0---0-0-----0-----0-0-----0-|    
D|---------------------------------------------------------|      
A|--8----7---5---3---1-----1-----0-----0------0------0-----|
E|---------------------------------------------------------|

e|-------------------------------------------------|
B|---0---1---3----12--------12---12---------12-----|
G|-----0---0---0-----0-0-------0----0--0-------0---|
D|-------------------------------------------------|
A|-------0---2----10-----10------10------10--------|
E|---3---------------------------------------------|

**5 seconds of silence**

e|--------------------------------------|
B|--0---1---3---5---3---2---1-------1---|
G|----0---0---0---0---0---0---0-0-----0-|
D|--------------------------------------|
A|------0---2---3---2---0---0-----0-----|
E|--3-----------------------------------|

e|-------------------------------------------------|
B|---0---1---3----12--------12---12---------12-----|
G|-----0---0---0-----0-0-------0----0--0-------0---|
D|-------------------------------------------------|
A|-------0---2----10-----10------10------10--------|
E|---3---------------------------------------------|

e|------3-------5-----------------------------------3------|
B|--5-------7--------8-------8---8---------8----7----------|
G|----0---0---0---0----0-0-----0----0-0------0----0---0----|
D|------0-------0-----------------------------------0------|
A|--3-------5--------7-----7-----6-------6------5----------|
E|---------------------------------------------------------|

e|---------------------------------------------------------------|
B|--5-------5---4-------4---3-------3---2-------2----1-------1---|
G|----0-0-----0---0-0-----0---0-0-----0---0-0-----0----0-0-----0-|
D|---------------------------------------------------------------|
A|--3-----3-----3-----3-----2-----2-----0-----0------0-----0-----|
E|---------------------------------------------------------------|

e|--------------------------------------------------|
B|--0-------0----5---3---2-------2---1--0-------0---|
G|----0-0-----0----0---0---0-0-----0------0-0-----0-|
D|--------------------------------------------------|
A|---------------3---2---0-----0-----0--------------|
E|--3-----3-----------------------------3-----3-----|

e|-------------------------------------|
B|--5---3---2-------2---1--0-------0---|
G|----0---0---0-0-----0------0-0-----0-|
D|-------------------------------------|
A|--3---2---0-----0-----0--------------|
E|-------------------------3-----3-----|



e|-------------------------------------|
B|--5---3---2-------2---1--0-------0---|
G|----0---0---0-0-----0------0-0-----0-|
D|-------------------------------------|
A|--3---2---0-----0-----0--------------|
E|-------------------------3-----3-----|
            
Submit corrections

comments powered by Disqus
↑ Back to top | Beatles Tabs for Black Bird. Lyrics for acoustic guitar and electric guitar. Tablatures and chords are parodies/interpretations of the original songs. You may use it for private study, scholarship, research or language learning purposes only