» » »

Beatles, Black Bird Tabs (ver.5)

Artists:  A B C D E F G H I J K L M N O P Q R S T U V W X Y Z # 

Black Bird Tabs (ver.5)

Beatles Tabs
Rating:
0/5 (0 votes)
Black Bird lessons Tabs too difficult? Try these video lessons and learn fast
                (this tab was essentially copied out of a Beatles anthology that is based on
transcripts from the original recording sessions.  In other words, this tab is 100% correct.) 

The Beatles (from The White Album)
Blackbird by John Lennon and Paul McCartney


At "d.s. coda" go back and play from "coda" to "to coda" then skip back to
"d.s. coda" and play to end.

               gliss.
E |---------------/--| |----------------------------------|
B |-0-----1-----3/---| |-12----12---12----12----12---12---|
G3|-|--0--|--0--|----|4|--|--0---------0---|--0---------0-|
D4|-|-----|-----|-/--|4|--|----------------|--------------|
A |-|-----0-----2/---| |-10------10-------10------10------|
E |-3----------------| |----------------------------------|

    coda        gliss. 
E |----------------/--| |----------------------------------|
B |--0-----1-----3/---| |-12----12---12----12----12---12---|
G3|.-|--0--|--0--|----|4|--|--0---------0---|--0---------0-|
D4|.-|-----|-----|-/--|4|--|----------------|--------------|
A |--|-----0-----2/---| |-10------10-------10------10------|
E |--3----------------| |----------------------------------|


E |-0-----3-----2-----5----|-3----3---3----3----3---3---|
B |-|-----|-----|-----|----|-|-------------|------------|
G4|-|--0--|--0--|--0--|--0-|-|--0-------0--|--0-------0-|
D4|-|-----|-----0-----|----|-2------2------1------1-----|
A |-3-----4-----------6----|----------------------------|
E |------------------------|----------------------------|


E |-2-----3----| |-----------------------------|
B |-|-----|----| |--5----5---5----4----4---4---|
G2|-|--0--|--0-|4|--|--0-------0--|--0-------0-|
D4|-0-----|----|4|--|-------------|------------|
A |-------4----| |--3------3------3------3-----|
E |------------| |-----------------------------|


E |----------------------------|----------------------------|
B |-3----3---3----2----2---2---|-1----1---1----0----0---0---|
G4|-|--0-------0--|--0-------0-|-|--0-------0--|--0-------0-|
D4|-|-------------|------------|-0------0------|------------|
A |-2------2------0------0-----|---------------|------------|
E |----------------------------|---------------3------3-----|


   To coda
   ___________________________________________
  |1. 
  |
E |-0------------------------|------------------------------|
B |-|-----3-----2----2---2---|-1----1---1----0----0---0-----|
G4|-|--0--|--0--|--0-------0-|-|--0-------0--|--0-------0--.|
D4|-|-----|-----|------0-----|-0------0------|-------------.|
A |-3-----2-----0------------|---------------|--------------|
E |--------------------------|---------------3------3-------|

   ________________________
  |2.
  |
E |-------------------------|-----------------------------|
B |--10----8-----6-----5----|--3----3---3----5----5---5---|
G4|.-|--0--|--0--|--0--|--0-|--|--0-------0--|--0-------0-|
D4|.-|-----|-----|-----|----|--|-------------|------------|
A |--8-----7-----5-----3----|--1------1------3------3-----|
E |-------------------------|-----------------------------|


E |------------------------|-----------------------------|
B |-10----8-----6-----5----|--3----3---3----2----2---2---|
G4|-|--0--|--0--|--0--|--0-|--|--0-------0--|--0-------0-|
D4|-|-----|-----|-----|----|--|-------------|------------|
A |-8-----7-----5-----3----|--1------1------0------0-----|
E |------------------------|-----------------------------|

                                 gliss.                  gliss.
E |--------------| |----------------/---| |----------------------/-------\---|
B |-1----1---1---| |--0-----1-----3/----| |-12---12--12---12\---/---12----\--|
G2|-|--0-------0-|3|--|--0--|--0--|-/---|4|--|-0--------0--|-\--|-------0-|--|
D4|-0------0-----|4|--|-----|-----2/----|4|--|-------------|----|---------|--|
A |--------------| |--|-----0-----------| |-10-----10-----10\---\-10------/--|
E |--------------| |--3-----------------| |------------------\---\-------/---|
                                                            2x
   _________________________
  |1.                           
  |                             
E |-------3-----2-----5----|-3----3---3----3----3---3----|
B |-0-----|-----|-----|----|-|-------------|-------------|
G4|-|--0--|--0--|--0--|--0-|-|--0-------0--|--0-------0--|
D4|-|-----|-----0-----|----|-2------2------1------1------|
A |-|-----4-----------6----|-----------------------------|
E |-3----------------------|-----------------------------|


E |-2-----3----| |-----------------------------|
B |-|-----|----| |--5---5---5----4----4---4----|
G2|-|--0--|--0-|4|--|-0-------0--|--0-------0--|
D4|-0-----|----|4|--|------------|-------------|
A |-------4----| |--3-----3------3------3------|
E |------------| |-----------------------------|

                                            __________________
                                                              |
                                                              |
E |----------------------------|------------------------------||
B |-3----3---3----2----2---2---|-1----1---1-----0----0---0----||
G4|-|--0-------0--|--0-------0-|-|--0-------0---|--0-------0-.||
D4|-|-------------|------------|-0------0-------|------------.||
A |-2------2------0------0-----|----------------|-------------||
E |----------------------------|----------------3------3------||

   _____________________ 
  |2.                                              _______/.\
  |                                               /       \
E |-----------------------------|---------------------| |----------|
B |-12---12--12---12---12--12---|-12---12---12---12---| |-12--12\--|
G4|--|-0--------0--|-0--------0-|--|-0--|-0--|-0--|-0-|2|--|---|-\-|
D4|--|-------------|------------|--|----|----|----|---|4|--|---|---|
A |-10-----10-----10-----10-----|-10---10---10---10---| |-10--10\--|
E |-----------------------------|---------------------| |--------\-|
                                                  \_______/


E |-------------------|-------------------| |---------------|
B |-0-----1-----3-----|--5-----3-----2----| |--1----1---1---|
G3|-|--0--|--0--|-0---|--|--0--|--0--|--0-|2|--|--0-------0-|
D4|-|-----|-----|-----|--|-----|-----|----|4|--0------0-----|
A |-|-----0-----2-----|--3-----2-----0----| |---------------|
E |-3-----------------|-------------------| |---------------|


    d.s. coda
E |--------------------------|----------------------------|
B |-5-----3-----2----2---2---|--1----1---1---0----0---0---|
G4|-|--0--|--0--|--0-------0-|--|--0-------0-|--0-------0-|
D4|-|-----|-----|------------|--0------0-----|------------|
A |-3-----2-----0------0-----|---------------|------------|
E |--------------------------|---------------3------3-----|


                                                     /.\
E |--------------------------|---------------------3--3-||
B |-5-----3-----2----2---2---|--1----1---1----0----0--0-||
G4|-|--0--|--0--|--0-------0-|--|--0-------0--|----0--0-||
D4|-|-----|-----|------------|--0------0------|----0--0-||
A |-3-----2-----0------0-----|----------------|---------||
E |--------------------------|----------------3---------||
            

comments powered by Disqus
↑ Back to top | Beatles Tabs for Black Bird. Lyrics for acoustic guitar and electric guitar. Tablatures and chords are parodies/interpretations of the original songs. You may use it for private study, scholarship, research or language learning purposes only