» » »

Beatles, Besame Mucho Tabs (ver.1)

Artists:  A B C D E F G H I J K L M N O P Q R S T U V W X Y Z # 

Besame Mucho Tabs (ver.1)

Beatles Tabs
Rating:
0/5 (0 votes)
Besame Mucho lessons Tabs too difficult? Try these video lessons and learn fast
                With the exception of the Intro, the chords were submitted by an Unregistered, so 


e|-10-11-10-8-----------------------------------------------------------|
B|-11-11-11-10-11-10-11-------------------------------------------------|
G|-------------12-11-12-------------------------------------------------|Riff 1 Intro/ over Gm
D|----------------------------------------------------------------------|
A|----------------------------------------------------------------------|
E|----------------------------------------------------------------------|

e|---------------------------------------------------------------------------|
B|---------------------------------------------------------------------------|
G|---------------------------------------------------------------------------|
D|-----0---------------------------------------------------------------------|   Riff 2 over Gm
A|----1-----0-1-2-3----------------------------------------------------------|
E|-3-3---3-3-----------------------------------------------------------------|

e|---------------------------------------------------------------------------|
B|---------------------------------------------------------------------------|
G|---------------------------------------------------------------------------|
D|-5--5-5-6--6-6-7--7-7-6--6-6-----------------------------------------------| Riff 3 over Cm6/Cm7
A|---------------------------------------------------------------------------|
E|---------------------------------------------------------------------------|

e|---------------------------------------------------------------------------|
B|---------------------------------------------------------------------------|
G|---------------------------------------------------------------------------|  Riff 4 over Gm
D|-----0-0-0-1-2-3-4---------------------------------------------------------|
A|----1---4------------------------------------------------------------------|
E|-3-3-----------------------------------------------------------------------|

Key: Gm

 Intro: Gm

 Cha-cha-boom!

  Gm             Cm    Cm6 Cm7 Cm6
 Besame, besame mucho.
 Cm                                           Gm
 Each time I bring you a kiss I hear music divine.
      G7             Cm
 So, besame, besame mucho.
       Gm                Eb             D7         Gm
 I'll love you forever, say that you'll always be mine.

 Cha-cha-boom!

  Gm                         Cm      Cm6 Cm7 Cm6
 Dearest one, if you should leave me
      Cm                                              Gm
 Then each little dream would take wings and my life would be through.
      G7             Cm
 Oh, besame, besame mucho.
       Gm               Eb           D7          Gm
 Ooh, love me forever, make all my dreams come true.

        Cm
 Ooh, this joy is something new,
 Gm
   My arms they're holding you,
 D7                          Gm
   Never knew this thrill before.
  Cm                     Gm
 Who ever thought I'd be
                           A
 Holding you close to me whispering,
           D7
 `It's you I adore'?

           Gm                         Cm      Cm6 
Cm6
 Yes, so, dearest one, if you should leave me
      Cm                                              Gm
 Then each little dream would take wings and my life would be through.
         G7             Cm
 Oh, so besame, besame mucho.
             Gm                Eb           D7          Gm
 Yeah, I'll love you forever, make all my dreams come true.

        Cm
 Ooh, this joy is something new,
 Gm
   My arms they're folding you,
 D7                          Gm
   Never knew this thrill before.
  Cm                     Gm
 Who ever thought I'd be
                           A
 Holding you close to me whispering,
           D7
 `It's you I adore'?

         Gm                         Cm      Cm6 Cm7 Cm6
 Oh, so dearest one, if you should leave me
      Cm                                              Gm
 Then each little dream would take wings and my life would be through.
         G7             Cm
 Oh, so besame, besame mucho.
          Gm                Eb           D7          Gm
 Ah, now love you forever, make all my dreams come true.
       Gm                Eb           D7          Gm
 Ooh, love you forever, make all my dreams come true.
       Gm                Eb           D7          Gm
 Ooh, love you forever, make all my dreams come true.
            

comments powered by Disqus
↑ Back to top | Beatles Tabs for Besame Mucho. Lyrics for acoustic guitar and electric guitar. Tablatures and chords are parodies/interpretations of the original songs. You may use it for private study, scholarship, research or language learning purposes only