» » »

Being For The Nenefit Of Mr Kite Tabs (ver.1)

Artists:  A B C D E F G H I J K L M N O P Q R S T U V W X Y Z # 

Being For The Nenefit Of Mr Kite Tabs (ver.1)

Beatles
Rating:
0/5 (0 votes)

Tabs too difficult? Try these video lessons and learn fast.
                
 Intro:                                       fill: ...chalenge the world...

1º||---------8-10-----------7-9-10-12-9-10---||----8-10-------7-9----10---||
2º||11-10-11------11-10--10----------------8-||-11------11-10-----10----8-||
3º||-----------------------------------------||---------------------------||
4º||-----------------------------------------||---------------------------||
5º||-----------------------------------------||---------------------------||
6º||-----------------------------------------||---------------------------||


Outro solo (solo final):

1º||--------------------------------------|
2º||--------------------------------------|
3º||7-7-7-7-6-6-----5-5-5-5-4-4-----------|
4º||------------7-7-------------5-5-7-7-7-|
5º||--------------------------------------|
6º||--------------------------------------|

  -------------------------------------|
  -------------------------------------|
  ---7-7-7-7-6-6---5-5-5-5-4-4---4-4-4-|
  ---------------7-------------5-------|
  -------------------------------------|
  -------------------------------------|


  -----------------------------------------|
  --------------5-5------------------------|
  -4--------4-4-----4-4-5-5-----4-4-4------|
  ---5----------------------5-5-------5----|
  -----7-7------------------------------7--|
  -----------------------------------------|

  -----------------------------------|
  ----------------5--------5-------4-|
  -5-5-5-4--4-4-4---7--5-7---5-4-6---|
  -----------------------------------|
  -----------------------------------|
  -----------------------------------|


  ------------------------||
  ---5--------5-----------||
  -4---7--5-7---5-4-5-4---||
  ------------------------||
  ----------------------7-||
  ------------------------||
            
Tabs too difficult? Try these video lessons and learn fast.




comments powered by Disqus
↑ Back to top | Tablatures and chords are parodies/interpretations of the original songs. You may use it for private study, scholarship, research or language learning purposes only