>
 >
Bad To Me

Bad To Me Guitar Tabs

Beatles - Bad To Me chords, tabs, tablatures, lyrics

Guitar lessons | Add/correct | Request | Top 50 tabs Artists:  A B C D E F G H I J K L M N O P Q R S T U V W X Y Z 0-9

Bad To Me Guitar Tabs – Beatles

CD, Sheet music, Poster

Do you like Bad To Me? Share with your friends now
Bass TabsChordsChords v2Chords v3TabsUkulele
Hola Amigos,esta es la tablatura de Bad to Me de The Beatles,
Hi Friends, this is the tab for Bad to Me by The Beatles,
La Afinación es un semitono abajo de lo normal (D#, G#, C#, F#, A#, D#)
The song is tuned Half-Step Down of the normal tune (D#, G#, C#, F#, A#, D#)

Disfrutenla
Enjoy it

E                     C#m
If you ever leave me, I'll be sad and blue
Abm			    F#m	             B7
Don't you ever leave me, I'm so in love with you

----------------------------------|
----------------------------------|
--4----2--------------------------|
--------------4-----0------2------|
----------------------------------|
----------------------------------|

The birds in the sky would be sad and lonely
        E	  Abm      C#m
If they knew that I lost my one and only,
    	  A	        B7     E   Abm	B7
They'd be sad if you're bad to me


    E		  Abm	       C#m
The leaves on the trees would be softly sighin’
        E	       Abm            C#m
If they heard from the breeze that you left me crying,
    	  A	       B7     E
They'd be sad don’t be bad to me

                A                         B7
But I know you won't leave me 'cause you told me so,
E		      C#7
I've no intention of letting you go,
A		        B7	     F#m	     B7
Just as long as you let me know, you won't be bad to me


----------------------------------|
----------------------------------|
--4----2--------------------------|
--------------4-----0------2------|
----------------------------------|
----------------------------------|


       E	    Abm	        C#m
So the birds in the sky won't be sad and lonely
            E         Abm     C#m
'Cause they know that I got my one and only
           A		   B7     Bm     C#7
They'll be glad you're not bad to me


           F#m             B7         E	  Abm	F#m	B7
They'll be glad you're not bad to me
      E	  Abm	F#m	B7
To me
      E	  Abm	F#m	B7
To me


Final

--12--------11----------9----7--9--7-----7--12--|
--------------------------------------9---------|
------------------------------------------------|
------------------------------------------------|
------------------------------------------------|
------------------------------------------------|

Repetir hasta que la canción termine.
Repeat until the song finish.





Comments


Popular Beatles tabs & chords
Dont Let Me Down 2 Bass Tabs
A Hard Days Night 5 Chords
All Ive Got To Do 4 Chords
All You Need Is Love 3 Chords
Carry That Weight Chords
Let It Be Chords
Cry Baby Cry 1 Tabs
Do You Want To Know A Secret Tabs
Drive My Car 1 Tabs
In My Life 1 Tabs


Song lyrics



↑ Back to top | Tablatures and chords are parodies/interpretations of the original songs. You may use it for private study, scholarship, research or language learning purposes only
© 2014 AZChords.com Contact us | Privacy policy | DMCA | Add/correct tabs | Request tabs | Top 50 tabs