>
 >
Back In The Ussr 3

Back In The Ussr 3 Guitar Tabs

Beatles - Back In The Ussr 3 chords, tabs, tablatures, lyrics

Guitar lessons | Add/correct | Request | Top 50 tabs Artists:  A B C D E F G H I J K L M N O P Q R S T U V W X Y Z 0-9

Back In The Ussr 3 Guitar Tabs – Beatles

CD, Sheet music, Poster

Do you like Back In The Ussr 3? Share with your friends now
Tabs
Intro
  Q=142
 4/4
  Gtr I
  W           Q  E.  S  a    +E  +E  Q    H       Q   E E
|----------||---------------------------|-------------0---|
|----------||---------------------------|-------------5---|
|----------||-------17\-5b6==(5)r(5)----|-----------------|
|----------||---------------------------|-----------------|
|----------||---------------------------|-----------------|
|----------||---------------------------|-----------------|
|
| Gtr II
| W           W                           E E E E E E E E
|----------||---------------------------|-----------------|
|----------||---------------------------|-----------------|
|----------||---------------------------|-----------------|
|----------||---------------------------|---------------6-|
|----------||---------------------------|-7-7-7-7-7-7-7-7-|
|----------||---------------------------|-0-0-0-0-0-0-0-0-|


  H       Q   E E   W                 W
|-------------0---|-----------------|-------------------||
|-------------5---|-----------------|-------------------||
|-------------7---|-----------------|-------------------||
|-----------------|-----------------|-------------------||
|-----------------|-----------------|-------------------||
|-----------------|-----------------|-------------------||
|
| E E E E E E E E   E E E E E E E E   E E E E E S S E E
|-----------------|-----------------|-------------------||
|-----------------|---------5-5-5-5-|-5-----5-----------||
|-----------------|-7-7-7-7-7-7-7-7-|-7-----7-----------||
|-6-6-6-6-6-6-6-6-|-6-6-6-6-6-6-6-6-|-6-6-6-6-6-6-6-6-6-||
|-7-7-7-7-7-7-7-7-|-7-7-7-7-7-7-7-7-|-7-7-7-7-7-7-7-7-7-||
|-0-0-0-0-0-0-0-0-|-0-0-0-0-0-0-0-0-|-0-0-0-0-0-0-0-0-0-||


   Verse
    Gtr II
    E E E E E E E E    E  E  E  E  E  E  E  E
||------------------|-------------------------|
||o-----------------|-------------------------|
||------------------|-------------------------|
||------------------|-------------------------|
||o-7-7-9-9-7-7-9-9-|-12-12-14-14-12-12-14-14-|
||--5-5-5-5-5-5-5-5-|-10-10-10-10-10-10-10-10-|
 |-Rhy Fig 1

   E  E  E  E  E  E  E  E    E  E  E  E  E  E  E  E
|-------------------------|-------------------------|
|-------------------------|-------------------------|
|-------------------------|-------------------------|
|-------------------------|-------------------------|
|-10-10-12-12-10-10-12-12-|-12-12-14-14-12-12-14-14-|
|--8--8--8--8--8--8--8--8-|-10-10-10-10-10-10-10-10-|
                                      end Rhy Fig 1-|

Rhy Fig 1

 Chorus
  Gtr I
  E  Q   E +E  E S S S S    E  Q     E  +E   E  S S  S S
|------------------------|-------------------------------|
|---10---8-(8)-7---------|----13----11-(11)-10-----------|
|----------------5h6-5h6-|----------------------8h9--8h9-|
|----7---5-(5)-4---------|----10-----8--(8)--7-----------|
|----------------3h4-3h4-|----------------------6h7--6h7-|
|------------------------|-------------------------------|
|
| Gtr II
| E  E E E  E  E E   E      E  E  E  E   E   E  E    E
|------------------------|-------------------------------|
|------------------------|-------------------------------|
|------------------------|-------------------------------|
|------------------------|-------------------------------|
|-7--7-9-9--7--7-9---9---|-10-10-12-12--10--10-12---12---|
|-5--5-5-5--5--5-5---5---|--8--8--8--8---8---8--8----8---|
|-Rhy Fig 2 (both Gtrs)

   E  Q     E  +E   E  S  S  S  S
|---------------------------------|
|----15----13-(13)-12-------------|
|---------------------10h11-10h11-|
|----12----10-(10)--9-------------|
|----------------------8h=9--8h=9-|
|---------------------------------|
|
|  E  E  E  E   E   E  E     E
|---------------------------------|
|---------------------------------|
|---------------------------------|
|---------------------------------|
|-12-12-14-14--12--12-14----14----|
|-10-10-10-10--10--10-10----10----|
                    end Rhy Fig 2-|

  1.
   W             W                 E  E  E  E  +Q    Q
|--------------|-----------------|---10-11-12-(12)-------||
|--------------|-----------------|----------------------o||
|--------------|-----------------|---10-12-13-(13)-------||
|--------------|-----------------|-----------------------||
|--------------|-----------------|----------------------o||
|--------------|-----------------|-----------------------||
|
|  Q   Q  H      E E E E E E E E   E  E  E  E  +E  E Q
|--------------|-----------------|-----------------------||
|--------------|-----------------|-----------------5-5--o||
|--------------|-----------------|-----------------7-7---||
|--------------|-----------------|-----------------6-6---||
|-12\----------|-7-7-9-9-7-7-9-9-|-7--7--9---------7-7--o||
|-10\----------|-5-5-5-5-5-5-5-5-|-5--5--7--0--(0)-------||


  2.
 3/4                         4/4
  Gtr II
  E E E E E E   E E E E E E   E E E E E E E E     E E E S S E S S E S S
|---5---5---5-|---5---5---5-|---5---5---5-----||-------------------------||
|---3---3---3-|---3---3---3-|---3---3---3-----||o-----------------------o||
|---4---4---4-|---4---4---4-|---4---4---4-----||-------------------------||
|---5---5---5-|---5---5---5-|---5---5---5-----||-------------------------||
|-------------|-------------|-------------0-0-||o-7-7-9-9-9-7-7-7-9-9-9-o||
|-0-----------|-------------|-----------------||--5-5-5-5-5-5-5-5-5-5-5--||


 Bridge
  $
   E  E  E  E  E  E  E  E    E  E  E  E  E  E  E  E   E E E E E E E E
|-------------------------|-------------------------|-----------------|
|-------------------------|-------------------------|-----------------|
|-------------------------|-------------------------|-----------------|
|-------------------------|-------------------------|-----------------|
|-12-12-14-14-12-12-14-14-|-12-12-14-14-12-12-14-14-|-7-7-9-9-7-7-9-9-|
|-10-10-10-10-10-10-10-10-|-10-10-10-10-10-10-10-10-|-5-5-5-5-5-5-5-5-|


  E E E E E E E E    E  E  E E  E  E  E E    E  E  E E E E E E
|-----------------|-----------------------|--------------------|
|-----------------|-----------------------|--------------------|
|-----------------|-----------------------|--------------------|
|-----------------|-----------------------|--------------------|
|-7-7-9-9-7-7-9-9-|-12-12-12---11-11-11---|-10-10-10---9-9-9---|
|-5-5-5-5-5-5-5-5-|-10-10-10----9--9--9---|--8--8--8---7-7-7---|


                                                                  To Coda
  E E E E E E E E   E E E E E E E E   E E E E E E E E   E E E E +E  E Q
|-----------------|-----------------|-----------------|-------------------||
|-5-5-5-5-5-5-5-5-|-3-3-3-3-3-3-3-3-|-----------------|-------------------||
|-7-7-7-7-7-7-7-7-|-5-5-5-5-5-5-5-5-|-----------------|-------------------||
|-6-6-6-6-6-6-6-6-|-4-4-4-4-4-4-4-4-|-----------------|-------9-(9)-9-9---||
|-5-5-5-5-5-5-5-5-|-5-5-5-5-5-5-5-5-|-7-7-9-9-7-7-9-9-|-7-9-9-7-(7)-7-7---||
|-----------------|-----------------|-5-5-5-5-5-5-5-5-|-5-7-7-------------||


 Guitar Solo
w/Rhy Fig 1 x2
  Gtr I
   a      +E   E   a      +E   E   a      +E   E   a      +E   E
|-----------------------------------------------------------------|
|-13b15==(13)-13r-13b15==(13)-13r-13b15==(13)-13r-13b15==(13)-13r-|
|-----------------------------------------------------------------|
|-----------------------------------------------------------------|
|-----------------------------------------------------------------|
|-----------------------------------------------------------------|

   a      +E    a      +Q       a      +E   +H
|---------------------------------------------------------|
|-13b15==(13)r-13b15==(13)r----13b15==(13)-(13)r----------|
|---------------------------------------------------------|
|---------------------------------------------------------|
|---------------------------------------------------------|
|---------------------------------------------------------|

                               ~~~~~~~~~~~~~~~~~~~~~~~
   a      +Q      E      +E    E  Q     E    +E   +H            E  E  E
|-----------------------------------------|-----------------------------|
|-13pb15r(13)----15b17==(15)r-------------|-----------------------------|
|-----------------------------14-14----14-|-(14)-(14)----------------14-|
|-----------------------------------------|-----------------------------|
|-----------------------------------------|-----------------------------|
|-----------------------------------------|-----------------------------|



   a      +Q     +E   a      +E   +E   +E   a      +Q
|--------------------------------------------------------|
|-13b15==(13)r==(13)-13b15==(13)-(13)r(13)-13b15==(13)r==|
|--------------------------------------------------------|
|--------------------------------------------------------|
|--------------------------------------------------------|
|--------------------------------------------------------|

   +E   a      +Q      +E   a      +Q      +Q
|-------------------------------------------------|
|=(13)-13b15==(13)r===(13)-13b15==(13)r===(13)----|
|-------------------------------------------------|
|-------------------------------------------------|
|-------------------------------------------------|
|-------------------------------------------------|


                        ~~~~~~~~~~~
                                         |--3--|
   +Q      E      +E    E  Q     E    E  S  S  S  S  S  E  +Q           Q
|----------------------------------|-----------------------------------------||
|-(13)----15b17==(15)r-------------|-----------------------------------------||
|----------------------14-14----14-|----14-12--------------------------------||
|----------------------------------|----------14-12-12s10-(10)b10.5----------||
|----------------------------------|-----------------------------------------||
|----------------------------------|-----------------------------------------||



 Chorus
 Rhy Fig 2


                                           D.S. al Coda
   W             W                 Q   Q     Q     Q
|--------------|-----------------|-----------------------||
|--------------|-----------------|-----------------------||
|--------------|-----------------|-----------------------||
|--------------|-----------------|-----------------------||
|--------------|-----------------|-----2-----3-----4-----||
|--------------|-----------------|-5---------------------||
|
|  Q   Q  H      E E E E E E E E   E E E S S E S S E S S
|--------------|-----------------|-----------------------||
|--------------|-----------------|-----------------------||
|--------------|-----------------|-----------------------||
|--------------|-----------------|-----------------------||
|-12\----------|-7-7-9-9-7-7-9-9-|-7-7-9-9-9-7-7-7-9-9-9-||
|-10\----------|-5-5-5-5-5-5-5-5-|-5-5-5-5-5-5-5-5-5-5-5-||


 Verse
  &
w/Rhy Fig 1 x2
   TP                 TP
   W                  W
|-17---------------|-17----------------------|
|------------------|-------------------------|
|------------------|-------------------------|
|------------------|-------------------------|
|------------------|-------------------------|
|------------------|-------------------------|



   TP                        TP
   W                         W
|-17----------------------|-17-----------------------|
|-------------------------|--------------------------|
|-------------------------|--------------------------|
|-------------------------|--------------------------|
|-------------------------|--------------------------|
|-------------------------|--------------------------|



   TP                 TP
   W                  W
|-17---------------|-17----------------------|
|------------------|-------------------------|
|------------------|-------------------------|
|------------------|-------------------------|
|------------------|-------------------------|
|------------------|-------------------------|



   TP                        TP
   W                         H.                 Q
|-17----------------------|-17-----------------17\-----||
|-------------------------|----------------------------||
|-------------------------|----------------------------||
|-------------------------|----------------------------||
|-------------------------|----------------------------||
|-------------------------|----------------------------||



 Chorus
 Rhy Fig 2


   W             W                 E  E  E  E  +Q    Q
|--------------|-----------------|---10-11-12-(12)------||
|--------------|-----------------|----------------------||
|--------------|-----------------|---10-12-13-(13)------||
|--------------|-----------------|----------------------||
|--------------|-----------------|----------------------||
|--------------|-----------------|----------------------||
|
|  Q   Q  H      E E E E E E E E   E  E  E  E  +E  E Q
|--------------|-----------------|----------------------||
|--------------|-----------------|-----------------5-5--||
|--------------|-----------------|-----------------7-7--||
|--------------|-----------------|-----------------6-6--||
|-12\----------|-7-7-9-9-7-7-9-9-|-7--7--9---------7-7--||
|-10\----------|-5-5-5-5-5-5-5-5-|-5--5--7--0--(0)------||


   Outro
    E  Q   E +E  E S S S S   E  Q   E +E  E S S S S  3x Q   H.
||-------------------------|-------------------------||-----------------*|
||o---10---8-(8)-7---------|---10---8-(8)-7---------o||-----------------*|
||-----------------5h6-5h6-|----------------5h6-5h6--||-----------------*|
||-----7---5-(5)-4---------|----7---5-(5)-4----------||-----------------*|
||o----------------3h4-3h4-|----------------3h4-3h4-o||-----5-----------*|
||-------------------------|-------------------------||-----------------*|
|
|   E  E E E  E  E E   E     E  E E E  E  E E   E    3x E E E  E +H
||-------------------------|-------------------------||-----------------*|
||o------------------------|------------------------o||-----------------*|
||-------------------------|-------------------------||-----------------*|
||-------------------------|-------------------------||-----------------*|
||o-7--7-9-9--7--7-9---9---|-7--7-9-9--7--7-9---9---o||-7-7-9--7-(7)----*|
||--5--5-5-5--5--5-5---5---|-5--5-5-5--5--5-5---5----||-5-5-5--5-(5)----*|





Comments


Popular Beatles tabs & chords
Birthday Bass Tabs
Everybodys Trying To Be My Baby Bass Tabs
A Day In The Life 3 Chords
Across The Universe 4 Chords
Daytripper Chords
Dear Prudence Chords
Every Little Thing Chords
No Reply Chords
Savoy Truffle Chords
Dr Robert 1 Tabs


Song lyrics



↑ Back to top | Tablatures and chords are parodies/interpretations of the original songs. You may use it for private study, scholarship, research or language learning purposes only
© 2014 AZChords.com Contact us | Privacy policy | DMCA | Add/correct tabs | Request tabs | Top 50 tabs