» » »

Beatles, Back In The Ussr Bass tabs (ver.2)

Artists:  A B C D E F G H I J K L M N O P Q R S T U V W X Y Z # 

Back In The Ussr Bass tabs (ver.2)

Beatles Tabs
Rating:
0/5 (0 votes)
Back In The Ussr lessons Tabs too difficult? Try these video lessons and learn fast
                Intro
(bass enters in at 0:09)
G-----------------------------------------------------------------|
D-----------------------------------------------------------------|
A-7-7-7-7-7-7-7-7-7-7-7-7-7-7-7-7-7-7-7-7-7-7-7-7-7-7-7-7-7-7-7-7-|
E-----------------------------------------------------------------|

Verse
G-2-2-0-0-------------------2-----|
D---------2-2-----0-0-0-0-3---3-0-|
A-------------3-3-----------------|
E---------------------------------|

G-----------0---------------2-----|
D---------0---2---0-0-0-0-3---3-0-|
A-3-3-3-3-------3-----------------|
E---------------------------------|
Play 2x

Chorus
G-2-2-2-2-2-2-2-2-5-5-5-5-5-5-5-5-7-7-7-7-7-7-7-7-7-|
D---------------------------------------------------|
A---------------------------------------------------|
E---------------------------------------------------|

fill
G---------------------------------|
D-7-7-7-7-7-7-7-7-7-7-7-7-7-7-7-7-|
A---------------------------------|
E---------------------------------|

Verse
G-2-2-0-0-------------------2-----|
D---------2-2-----0-0-0-0-3---3-0-|
A-------------3-3-----------------|
E---------------------------------|

G-----------0---------------2-----|
D---------0---2---0-0-0-0-3---3-0-|
A-3-3-3-3-------3-----------------|
E---------------------------------|
Play 2x


Chorus
G-2-2-2-2-2-2-2-2-5-5-5-5-5-5-5-5-7-7-7-7-7-7-7-7-7-|
D---------------------------------------------------|
A---------------------------------------------------|
E---------------------------------------------------|

fill
G---------------------------------|
D---------------------------------|
A---------------------------------|
E-5-5-5-5-5-5-5-5-5-5-5-5-5-5-5-5-|

Bridge
G-7-7-7-7-7-7-7-7-7-7-7-7-7-7-7-7-|
D---------------------------------|
A---------------------------------|
E---------------------------------|

G---------------------------------|
D-7-7-7-7-7-7-7-7-7-7-7-7-7-7-7-7-|
A---------------------------------|
E---------------------------------|

G-7-7-7-7-6-6-6-6-5-5-5-5-4-4-4-4-|
D---------------------------------|
A---------------------------------|
E---------------------------------|

G---------------------------------|
D---------------------------------|
A-7-7-7-7-7-7-7-7-5-5-5-5-5-5-5-5-|
E---------------------------------|

G---------------------------------|
D---------------------------------|
A---------------------------------|
E-5-5-5-5-5-5-5-5-5-5-5-5-5-5-5-5-|

Verse
G-2-2-0-0-------------------2-----|
D---------2-2-----0-0-0-0-3---3-0-|
A-------------3-3-----------------|
E---------------------------------|

G-----------0---------------2-----|
D---------0---2---0-0-0-0-3---3-0-|
A-3-3-3-3-------3-----------------|
E---------------------------------|
Play 2x

Chorus
G-2-2-2-2-2-2-2-2-5-5-5-5-5-5-5-5-7-7-7-7-7-7-7-7-7-|
D---------------------------------------------------|
A---------------------------------------------------|
E---------------------------------------------------|

fill
G---------------------------------|
D-7-7-7-7-7-7-7-7-7-7-7-7-7-7-7-7-|
A---------------------------------|
E---------------------------------|

Bridge
G-7-7-7-7-7-7-7-7-7-7-7-7-7-7-7-7-|
D---------------------------------|
A---------------------------------|
E---------------------------------|

G---------------------------------|
D-7-7-7-7-7-7-7-7-7-7-7-7-7-7-7-7-|
A---------------------------------|
E---------------------------------|

G-7-7-7-7-6-6-6-6-5-5-5-5-4-4-4-4-|
D---------------------------------|
A---------------------------------|
E---------------------------------|

G---------------------------------|
D---------------------------------|
A-7-7-7-7-7-7-7-7-5-5-5-5-5-5-5-5-|
E---------------------------------|

G---------------------------------|
D---------------------------------|
A---------------------------------|
E-5-5-5-5-5-5-5-5-5-5-5-5-5-5-5-5-|

Verse
G-2-2-0-0-------------------2-----|
D---------2-2-----0-0-0-0-3---3-0-|
A-------------3-3-----------------|
E---------------------------------|

G-----------0---------------2-----|
D---------0---2---0-0-0-0-3---3-0-|
A-3-3-3-3-------3-----------------|
E---------------------------------|
Play 2x

Chorus
G-2-2-2-2-2-2-2-2-5-5-5-5-5-5-5-5-7-7-7-7-7-7-7-7-7-|
D---------------------------------------------------|
A---------------------------------------------------|
E---------------------------------------------------|

fill
G---------------------------------|
D-7-7-7-7-7-7-7-7-7-7-7-7-7-7-7-7-|
A---------------------------------|
E---------------------------------|

Outro
G-2-2-0-2-2-2-2-2-2-2-0-2-2-2-2-|
D-------------------------------|
A-------------------------------|
E-------------------------------|

G-2-2-0-2-2-2-2-2-2-2-0-2-2-2-2-|
D-------------------------------|
A-------------------------------|
E-------------------------------|

G-2-2-0-2-2-2-2-2-2-2-0-2-2-2-2-|
D-------------------------------|
A-----------------------------0-|
E-------------------------------|
            

comments powered by Disqus
↑ Back to top | Beatles Bass for Back In The Ussr. Lyrics for acoustic guitar and electric guitar. Tablatures and chords are parodies/interpretations of the original songs. You may use it for private study, scholarship, research or language learning purposes only