>
 >
And Your Bird Can Sing 2

And Your Bird Can Sing 2 Guitar Tabs

Beatles - And Your Bird Can Sing 2 chords, tabs, tablatures, lyrics

Guitar lessons | Add/correct | Request | Top 50 tabs Artists:  A B C D E F G H I J K L M N O P Q R S T U V W X Y Z 0-9

And Your Bird Can Sing 2 Guitar Tabs – Beatles

CD, Sheet music, Poster

Do you like And Your Bird Can Sing 2? Share with your friends now
Bass TabsBass Tabs v2ChordsChords v2Chords v3Chords v4Chords v5TabsTabs v2Tabs v3Tabs v4Tabs v5Tabs v6Tabs v7
  ---------------------------------------------------------------------

  THE BEATLES - AND YOUR BIRD CAN SING (Lennon/McCartney) From REVOLVER
                album. Released on 5th August 1966.

  ---------------------------------------------------------------------






  Tell me that you've got everything you want
  And your bird can sing
  But you don't get me, you don't get me

  You say you've seen seven wonders and your bird is green
  But you can't see me, you can't see me

  When your prized possessions start to wear you down
  Look in my direction, I'll be round, I'll be round

  When your bird is broken will it bring you down
  You may be awoken, I'll be round, I'll be round

  You tell me that you've heard every sound there is
  And your bird can swing
  But you can't hear me, you can't hear me




          Use a capo on the 2nd fret for all three guitars



  INTRO   
                                   
  D
e|2------ 2------ 2------ 2------|2------ 2------ 2------ 2------|
B|3-------3-------3-------3------|3-------3-------3-------3------|
G|2-------2-------2-------2------|2-------2-------2-------2------|
D|0-------0-------0-------0------|0-------0-------0-------0------|
A|-------------------------------|-------------------------------|
E|-------------------------------|-------------------------------|

e|------- ------- ------- -------|------- ------- ------- -------|
B|----7---5-------5--------------|-------------------------------|
G|------------7-------7---6---7--|6---4-------------------7---9--|
D|-------------------------------|--------7---5---4---7----------|
A|-------------------------------|-------------------------------|
E|-------------------------------|-------------------------------|

e|------- ------- ------- -------|------- ------- ------- -------|
B|-------------------------------|-------------------------------|
G|----7---6---4---6---4-------4--|-------------------------------|
D|------------------------7------|7---5---4---------------4---7--|
A|-------------------------------|------------7---5---7----------|
E|-------------------------------|-------------------------------|  





e|2------ 2------ 2------ 2------|2------ 2------ 2------ 2------|
B|3-------3-------3-------3------|3-------3-------3-------3------|
G|2-------2-------2-------2------|2-------2-------2-------2------|
D|0-------0-------0-------0------|0-------0-------0-------0------|
A|-------------------------------|-------------------------------|
E|-------------------------------|-------------------------------|
                                                              
e|------- ------- ------- -------|------- ------- ------- -------|
B|7-------7---------7B8-R-7------|-------------------------------|
G|-------------------------------|7-------7---9---9B11----9P7----|
D|-------------------------------|----7-----------------------9--|
A|-------------------------------|-------------------------------|
E|-------------------------------|-------------------------------|

e|------- ------- ------- -------|------- ------- ------- -------|
B|-------------------------------|-------------------------------|
G|7-------7---------7B8-R-7------|----------------7-------4------|
D|-------------------------------|7---4---5---7-------------7-4--|
A|-------------------------------|-------------------------------|
E|-------------------------------|-------------------------------|


  VERSE
  00:07

e|2------ 2------ 2------ 2------|2------ 2------ 2------ 2------|
B|3-------3-------3-------3------|3-------3-------3-------3------|
G|2-------2-------2-------2------|2-------2-------2-------2------|
D|0-------0-------0-------0------|0-------0-------0-------0------|
A|-------------------------------|-------------------------------|
E|-------------------------------|-------------------------------|
  Tell    that    got     everything      you     want
      me      you've
e|------- ------- ------- -------|------- ------- ------- -------|
B|-------------------------------|-------------------------------|
G|-------------------------------|-------------------------------|
D|7------------------------------|-------------------------------|
A|-------------------------------|-------------------------------|
E|-------------------------------|-------------------------------|

e|------- ------- ------- -------|------- ------- ------- -------|
B|-------------------------------|-------------------------------|
G|-------------------------------|-------------------------------|
D|-------------------------------|-------------------------------|
A|5------------------------------|-------------------------------|
E|-------------------------------|-------------------------------|





e|2------ 2------ 2------ 2------|2------ 2------ 2------ 2------|
B|3-------3-------3-------3------|3-------3-------3-------3------|
G|2-------2-------2-------2------|2-------2-------2-------2------|
D|0-------0-------0-------0------|0-------0-------0-------0------|
A|-------------------------------|-------------------------------|
E|-------------------------------|-------------------------------|
  And     your    bird    can     sing    But you don't       me,
                                                      get


  Em                              G
e|0------ 0------ 0------ 0------|3------ 3------ 3------ 3------|
B|0-------0-------0-------0------|3-------3-------3-------3------|
G|0-------0-------0-------0------|0-------0-------0-------0------|
D|2-------2-------2-------2------|0-------0-------0-------0------|
A|2-------2-------2-------2------|2-------2-------2-------2------|
E|0-------0-------0-------0------|3-------3-------3-------3------|
                                              you don't  
                                                      get


  D
e|2------ 2------ 2------ 2------|2------ 2------ 2------ 2------|
B|3-------3-------3-------3------|3-------3-------3-------3------|
G|2-------2-------2-------2------|2-------2-------2-------2------|
D|0-------0-------0-------0------|0-------0-------0-------0------|
A|-------------------------------|-------------------------------|
E|-------------------------------|-------------------------------|
          me
e|------- ------- ------- -------|------- ------- ------- -------|
B|-------------------------------|-------------------------------|
G|-------------------------------|------------7---9B11----9-7----|
D|-------------------------------|----7---9-------------------9--|
A|-------------------------------|-------------------------------|
E|-------------------------------|-------------------------------|

e|------- ------- ------- -------|------- ------- ------- -------|
B|-------------------------------|-------------------------------|
G|-------------------------------|----------------7-------4------|
D|-------------------------------|----4---5---7-------------7-4--|
A|-------------------------------|-------------------------------|
E|-------------------------------|-------------------------------|



  00:22

e|2------ 2------ 2------ 2------|2------ 2------ 2------ 2------|
B|3-------3-------3-------3------|3-------3-------3-------3------|
G|2-------2-------2-------2------|2-------2-------2-------2------|
D|0-------0-------0-------0------|0-------0-------0-------0------|
A|-------------------------------|-------------------------------|
E|-------------------------------|-------------------------------|
  You     say     you've  seen    seven           wonders 
e|------- ------- ------- -------|------- ------- ------- -------|
B|-------------------------------|-------------------------------|
G|-------------------------------|-------------------------------|
D|7------------------------------|-------------------------------|
A|-------------------------------|-------------------------------|
E|-------------------------------|-------------------------------|

e|------- ------- ------- -------|------- ------- ------- -------|
B|-------------------------------|-------------------------------|
G|-------------------------------|-------------------------------|
D|-------------------------------|-------------------------------|
A|5------------------------------|-------------------------------|
E|-------------------------------|-------------------------------|





e|2------ 2------ 2------ 2------|2------ 2------ 2------ 2------|
B|3-------3-------3-------3------|3-------3-------3-------3------|
G|2-------2-------2-------2------|2-------2-------2-------2------|
D|0-------0-------0-------0------|0-------0-------0-------0------|
A|-------------------------------|-------------------------------|
E|-------------------------------|-------------------------------|
  and     your    bird    is      green,  but you can't       me,
                                                      see


  Em                              G
e|0------ 0------ 0------ 0------|3------ 3------ 3------ 3------|
B|0-------0-------0-------0------|3-------3-------3-------3------|
G|0-------0-------0-------0------|0-------0-------0-------0------|
D|2-------2-------2-------2------|0-------0-------0-------0------|
A|2-------2-------2-------2------|2-------2-------2-------2------|
E|0-------0-------0-------0------|3-------3-------3-------3------|
                                              you can't   see



  D
e|2---2-- 2------ 2------ 2------|2------ 2------ 2---2-- 2------|
B|3---3---3-------3-------3------|3-------3-------3---3---3---0--|
G|2---2---2-------2-------2------|2-------2-------2---2---2---0--|
D|0---0---0-------0-------0------|0-------0-------0---0---0---0--|
A|-------------------------------|-------------------------------|
E|-------------------------------|-------------------------------|
          me

  MIDDLE EIGHT
  00:36
  F#m                             F#mmaj7                       
e|2------ 2------ 2------ 2------|2------ 2------ 2------ 2------|
B|2-------2-------2-------2------|2-------2-------2-------2------|
G|2-------2-------2-------2------|2-------2-------2-------2------|
D|4-------4-------4-------4------|3-------3-------3-------3------|
A|4-------4-------4-------4------|4-------4-------4-------4------|
E|2-------2-------2-------2------|2-------2-------2-------2------|
  When        prized  possessions 
      your
e|------- ------- ------- -------|------- ------- ------- -------|
B|------------7------------------|------------6------------------|
G|--------6-----------6----------|--------6-----------6----------|
D|7---9-------------------9---7--|7---9-------------------9---7--|
A|-------------------------------|-------------------------------|
E|-------------------------------|-------------------------------|

e|------- ------- ------- -------|------- ------- ------- -------|
B|-------------------------------|-------------------------------|
G|------------6------------------|------------6------------------|
D|4---6---7-----------7---6---4--|4---6---7-----------7---6---4--|
A|-------------------------------|-------------------------------|
E|-------------------------------|-------------------------------|




  F#m7                            B7
e|2------ 2------ 2------ 2------|------- ------- ------- -------|
B|2-------2-------2-------2------|0-------0-------0-------0------|
G|2-------2-------2-------2------|2-------2-------2-------2------|
D|2-------2-------2-------2------|1-------1-------1-------1------|
A|4-------4-------4-------4------|2-------2-------2-------2------|
E|2-------2-------2-------2------|-------------------------------|
  start   to  wear    you     down
e|------- ------- ------- -------|------- ------- ------- -------|
B|-------------------------------|-------------------------------|
G|--------6---9-------6----------|----6---9---8------------------|
D|7---9-------------------9---7--|7-------------------9----------|
A|-------------------------------|------------------------9---6--|
E|-------------------------------|-------------------------------|

e|------- ------- ------- -------|------- ------- ------- -------|
B|-------------------------------|-------------------------------|
G|------------6------------------|--------6---4------------------|
D|4---6---7-----------7---6---4--|4---7---------------4----------|
A|-------------------------------|------------------------6------|
E|-------------------------------|----------------------------7--|




  D                               Em
e|2------ 2------ 2------ 2------|0------ 0------ 0------ 0------|
B|3-------3-------3-------3------|0-------0-------0-------0------|
G|2-------2-------2-------2------|0-------0-------0-------0------|
D|0-------0-------0-------0------|2-------2-------2-------2------|
A|-------------------------------|2-------2-------2-------2------|
E|-------------------------------|0-------0-------0-------0------|
  Look        my      direction,                      I'll    round,
      in                                                  be
e|------- ------- ------- -------|------- ------- ------- -------|
B|-------------------------------|------------5------------------|
G|------------7------------------|--------4-----------4----------|
D|----4---7-----------7---4------|----5-------------------5------|
A|5---------------------------5--|7---------------------------7--|
E|-------------------------------|-------------------------------|

e|------- ------- ------- -------|------- ------- ------- -------|
B|-------------------------------|-------------------------------|
G|-------------------------------|-------------------------------|
D|--------4---7-------4----------|--------5---9-------5----------|
A|----5-------------------5------|----7-------------------7------|
E|5---------------------------5--|7---------------------------7--|




  Em7                             A
e|0------ 0------ 0------ 0------|0------ 0------ 0------ 0------|
B|0-------0-------0-------0------|2-------2-------2-------2------|
G|0-------0-------0-------0------|2-------2-------2-------2------|
D|0-------0-------0-------0------|2-------2-------2-------2------|
A|2-------2-------2-------2------|0-------0-------0-------0------|
E|0-------0-------0-------0------|-------------------------------|
                      I'll    round
                          be
e|------- ------- ------- -------|------- ------- ------- -------|
B|------------5------------------|------------5------------------|
G|--------4-----------4----------|--------6-----------6----------|
D|----5-------------------5------|----7-------------------7------|
A|7---------------------------7--|7---------------------------7--|
E|-------------------------------|-------------------------------|

e|------- ------- ------- -------|------- ------- ------- -------|
B|-------------------------------|-------------------------------|
G|-------------------------------|------------6------------------|
D|--------5---9-------5----------|--------7-----------7----------|
A|----7-------------------7------|4---7-------------------7---4--|
E|7---------------------------7--|-------------------------------|    



  00:50
  D
e|2------ 2------ 2------ 2------|2------ 2------ 2------ 2------|
B|3-------3-------3-------3------|3-------3-------3-------3------|
G|2-------2-------2-------2------|2-------2-------2-------2------|
D|0-------0-------0-------0------|0-------0-------0-------0------|
A|-------------------------------|-------------------------------|
E|-------------------------------|-------------------------------|

e|------- ------- ------- -------|------- ------- ------- -------|
B|----7-\-5-------5--------------|-------------------------------|
G|------------7-------7---6---7--|6---4-------------------7---9--|
D|-------------------------------|--------7---5---4---7----------|
A|-------------------------------|-------------------------------|
E|-------------------------------|-------------------------------|

e|------- ------- ------- -------|------- ------- ------- -------|
B|-------------------------------|-------------------------------|
G|----7-\-6---4---6---4-------4--|-------------------------------|
D|------------------------7------|7---5---4---------------4---7--|
A|-------------------------------|------------7---5---7----------|
E|-------------------------------|-------------------------------|  





e|2------ 2------ 2------ 2------|2------ 2------ 2------ 2------|
B|3-------3-------3-------3------|3-------3-------3-------3------|
G|2-------2-------2-------2------|2-------2-------2-------2------|
D|0-------0-------0-------0------|0-------0-------0-------0------|
A|-------------------------------|-------------------------------|
E|-------------------------------|-------------------------------|
                                                              
e|------- ------- ------- -------|------- ------- ------- -------|
B|7-------7---------7B8-R-7------|-------------------------------|
G|-------------------------------|7-------7---9---9B11----9P7----|
D|-------------------------------|----7-----------------------9--|
A|-------------------------------|-------------------------------|
E|-------------------------------|-------------------------------|

e|------- ------- ------- -------|------- ------- ------- -------|
B|-------------------------------|-------------------------------|
G|7-------7---------7B8-R-7------|----------------7-------4------|
D|-------------------------------|7---4---5---7-------------7-4--|
A|-------------------------------|-------------------------------|
E|-------------------------------|-------------------------------|




  Em                              G
e|0------ 0------ 0------ 0------|3------ 3------ 3------ 3------|
B|0-------0-------0-------0------|3-------3-------3-------3------|
G|0-------0-------0-------0------|0-------0-------0-------0------|
D|2-------2-------2-------2------|0-------0-------0-------0------|
A|2-------2-------2-------2------|2-------2-------2-------2------|
E|0-------0-------0-------0------|3-------3-------3-------3------|

e|------- ------- ------- -------|------- ------- ------- 7---9-9H
B|----7---8---10--8---7----------|------------7---8---10---------|
G|9-----------------------9---7--|6---7---9----------------------|
D|-------------------------------|-------------------------------|
A|-------------------------------|-------------------------------|
E|-------------------------------|-------------------------------|

e|------- ------- ------- -------|------- ------- ------- -------|
B|-------------------------------|----------------------------5-5H
G|--------4---6---4--------------|----------------4---6---7------|
D|5---7---------------7---5---4--|----4---5---7------------------|
A|-------------------------------|7------------------------------|
E|-------------------------------|-------------------------------|




  D
e|2------ 2------ 2------ 2------|2------ 2------ 2------ 2------|
B|3-------3-------3-------3------|3-------3-------3-------3---0--|
G|2-------2-------2-------2------|2-------2-------2-------2---0--|
D|0-------0-------0-------0------|0-------0-------0-------0---0--|
A|-------------------------------|-------------------------------|
E|-------------------------------|-------------------------------|

e|10----- 10----- -10B11R 10-----|------- ------- ------- -------|
B|-------------------------------|10--7--------------------------|
G|-------------------------------|--------7----------------------|
D|-------------------------------|-------------------------------|
A|-------------------------------|-------------------------------|
E|-------------------------------|-------------------------------|

e|------- ------- ------- -------|------- ------- ------- -------|
B|7-------7---------7B8-R-7------|-------------------------------|
G|-------------------------------|7------------------------------|
D|-------------------------------|----7---4----------------------|
A|-------------------------------|-------------------------------|
E|-------------------------------|-------------------------------|


  MIDDLE EIGHT 
  01:05
  F#m                             F#mmaj7
e|2------ 2------ 2------ 2------|2------ 2------ 2------ 2------|
B|2-------2-------2-------2------|2-------2-------2-------2------|
G|2-------2-------2-------2------|2-------2-------2-------2------|
D|4-------4-------4-------4------|3-------3-------3-------3------|
A|4-------4-------4-------4------|4-------4-------4-------4------|
E|2-------2-------2-------2------|2-------2-------2-------2------|
  When        bird    is      broken 
      your
e|------- ------- ------- -------|------- ------- ------- -------|
B|------------7------------------|------------6------------------|
G|--------6-----------6----------|--------6-----------6----------|
D|7---9-------------------9---7--|7---9-------------------9---7--|
A|-------------------------------|-------------------------------|
E|-------------------------------|-------------------------------|

e|------- ------- ------- -------|------- ------- ------- -------|
B|-------------------------------|-------------------------------|
G|------------6------------------|------------6------------------|
D|4---6---7-----------7---6---4--|4---6---7-----------7---6---4--|
A|-------------------------------|-------------------------------|
E|-------------------------------|-------------------------------|




  F#m7                            B7
e|2------ 2------ 2------ 2------|------- ------- ------- -------|
B|2-------2-------2-------2------|0-------0-------0-------0------|
G|2-------2-------2-------2------|2-------2-------2-------2------|
D|2-------2-------2-------2------|1-------1-------1-------1------|
A|4-------4-------4-------4------|2-------2-------2-------2------|
E|2-------2-------2-------2------|-------------------------------|
  will        bring   you     down
      it
e|------- ------- ------- -------|------- ------- ------- -------|
B|-------------------------------|-------------------------------|
G|--------6---9-------6----------|----6---9---8------------------|
D|7---9-------------------9---7--|7-------------------9----------|
A|-------------------------------|------------------------9---6--|
E|-------------------------------|-------------------------------|

e|------- ------- ------- -------|------- ------- ------- -------|
B|-------------------------------|-------------------------------|
G|------------6------------------|--------6---4------------------|
D|4---6---7-----------7---6---4--|4---7---------------4----------|
A|-------------------------------|------------------------6------|
E|-------------------------------|----------------------------7--|




  D                               Em
e|2------ 2------ 2------ 2------|0------ 0------ 0------ 0------|
B|3-------3-------3-------3------|0-------0-------0-------0------|
G|2-------2-------2-------2------|0-------0-------0-------0------|
D|0-------0-------0-------0------|2-------2-------2-------2------|
A|-------------------------------|2-------2-------2-------2------|
E|-------------------------------|0-------0-------0-------0------|
  You may     be      awoken,                         I'll    round, 
                                                          be
e|------- ------- ------- -------|------- ------- ------- -------|
B|-------------------------------|------------5------------------|
G|------------7------------------|--------4-----------4----------|
D|----4---7-----------7---4------|----5-------------------5------|
A|5---------------------------5--|7---------------------------7--|
E|-------------------------------|-------------------------------|

e|------- ------- ------- -------|------- ------- ------- -------|
B|-------------------------------|-------------------------------|
G|-------------------------------|-------------------------------|
D|--------4---7-------4----------|--------5---9-------5----------|
A|----5-------------------5------|----7-------------------7------|
E|5---------------------------5--|7---------------------------7--|




  Em7                             A
e|0------ 0------ 0------ 0------|0------ 0------ 0------ 0------|
B|0-------0-------0-------0------|2-------2-------2-------2------|
G|0-------0-------0-------0------|2-------2-------2-------2------|
D|0-------0-------0-------0------|2-------2-------2-------2------|
A|2-------2-------2-------2------|0-------0-------0-------0------|
E|0-------0-------0-------0------|-------------------------------|
                      I'll    round                           You
                          be
e|------- ------- ------- -------|------- ------- ------- -------|
B|------------5------------------|------------5------------------|
G|--------4-----------4----------|--------6-----------6----------|
D|----5-------------------5------|----7-------------------7------|
A|7---------------------------7--|7---------------------------7--|
E|-------------------------------|-------------------------------|

e|------- ------- ------- -------|------- ------- ------- -------|
B|-------------------------------|-------------------------------|
G|------------6------------------|-------------------------------|
D|--------7-----------7----------|-------------------------------|
A|4---7-------------------7---4--|-------------------------------|
E|-------------------------------|-------------------------------|

  VERSE
  01:19
  D
e|2------ 2------ 2------ 2------|2---2-- 2------ 2------ 2------|
B|3-------3-------3-------3------|3---3---3-------3-------3------|
G|2-------2-------2-------2------|2---2---2-------2-------2------|
D|0-------0-------0-------0------|0---0---0-------0-------0------|
A|-------------------------------|-------------------------------|
E|-------------------------------|-------------------------------|
  tell    that    heard   every   sound   there   is
      me      you've


                                                              Em
e|2---2-- 2---2-- 2------ 2------|2---2-- 2------ 2------ 2---0--|
B|3---3---3---3---3-------3------|3---3---3-------3-------3---0--|
G|2---2---2---2---2-------2------|2---2---2-------2-------2---0--|
D|0---0---0---0---0-------0------|0---0---0-------0-------0---2--|
A|-------------------------------|----------------------------2--|
E|-------------------------------|----------------------------0--|
  and     your    bird    can     swing   but you can't       me,   
                                                      hear


                                  G
e|0------ 0------ 0------ 0------|3---3-- 3------ 3------ 3---3--|
B|0-------0-------0-------0------|3---3---3-------3-------3---3--|
G|0-------0-------0-------0------|0---0---0-------0-------0---0--|
D|2-------2-------2-------2------|0---0---0-------0-------0---0--|
A|2-------2-------2-------2------|2---2---2-------2-------2---2--|
E|0-------0-------0-------0------|3---3---3-------3-------3---3--|
                                              you can't 
                                                      hear


  D
e|2---2-- 2------ 2------ 2------|2---2-- ----2-- 2---2-- 2---2--|
B|3---3---3-------3-------3------|3---3-------3---3---3---3---3--|
G|2---2---2-------2-------2------|2---2-------2---2---2---2---2--|
D|0---0---0-------0-------0------|0---0-------0---0---0---0---0--|
A|-------------------------------|-------------------------------|
E|-------------------------------|-------------------------------|
          me

     
  01:34

e|2------ 2------ 2------ 2------|2------ 2------ 2------ 2------|
B|3-------3-------3-------3------|3-------3-------3-------3------|
G|2-------2-------2-------2------|2-------2-------2-------2------|
D|0-------0-------0-------0------|0-------0-------0-------0------|
A|-------------------------------|-------------------------------|
E|-------------------------------|-------------------------------|

e|------- ------- ------- -------|------- ------- ------- -------|
B|----7-\-5-------5--------------|-------------------------------|
G|------------7-------7---6---7--|6---4-------------------7---9--|
D|-------------------------------|--------7---5---4---7----------|
A|-------------------------------|-------------------------------|
E|-------------------------------|-------------------------------|

e|------- ------- ------- -------|------- ------- ------- -------|
B|-------------------------------|-------------------------------|
G|----7-\-6---4---6---4-------4--|-------------------------------|
D|------------------------7------|7---5---4---------------4---7--|
A|-------------------------------|------------7---5---7----------|
E|-------------------------------|-------------------------------|  





e|2------ 2------ 2------ 2------|2------ 2------ 2------ 2------|
B|3-------3-------3-------3------|3-------3-------3-------3------|
G|2-------2-------2-------2------|2-------2-------2-------2------|
D|0-------0-------0-------0------|0-------0-------0-------0------|
A|-------------------------------|-------------------------------|
E|-------------------------------|-------------------------------|
                                                              
e|------- ------- ------- -------|------- ------- ------- -------|
B|7-------7---------7B8-R-7------|-------------------------------|
G|-------------------------------|7-------7---9---9B11----9P7----|
D|-------------------------------|----7-----------------------9--|
A|-------------------------------|-------------------------------|
E|-------------------------------|-------------------------------|

e|------- ------- ------- -------|------- ------- ------- -------|
B|-------------------------------|-------------------------------|
G|7-------7---------7B8-R-7------|----------------7-------4------|
D|-------------------------------|7---4---5---7-------------7-4--|
A|-------------------------------|-------------------------------|
E|-------------------------------|-------------------------------|




  Em                              G
e|0------ 0------ 0------ 0------|3------ 3------ 3------ 3------|
B|0-------0-------0-------0------|3-------3-------3-------3------|
G|0-------0-------0-------0------|0-------0-------0-------0------|
D|2-------2-------2-------2------|0-------0-------0-------0------|
A|2-------2-------2-------2------|2-------2-------2-------2------|
E|0-------0-------0-------0------|3-------3-------3-------3------|

e|------- ------- ------- -------|------- ------- ------- 7---9--|
B|----7---8---10--8---7----------|------------7---8---10---------|
G|9-----------------------9---7--|6---7---9----------------------|
D|-------------------------------|-------------------------------|
A|-------------------------------|-------------------------------|
E|-------------------------------|-------------------------------|

e|------- ------- ------- -------|------- ------- ------- -------|
B|-------------------------------|----------------------------5--|
G|--------4---6---4--------------|----------------4---6---7------|
D|5---7---------------7---5---4--|----4---5---7------------------|
A|-------------------------------|7------------------------------|
E|-------------------------------|-------------------------------|




  D
e|2---2-- 2------ 2------ 2------|2------ 2------ 2------ 2------|
B|3---3---3-------3-------3------|3-------3-------3-------3---0--|
G|2---2---2-------2-------2------|2-------2-------2-------2---0--|
D|0---0---0-------0-------0------|0-------0-------0-------0---0--|
A|-------------------------------|-------------------------------|
E|-------------------------------|-------------------------------|

e|10----- 10----- -10B11R 10-----|------- ------- ------- -------|
B|-------------------------------|10--7--------------------------|
G|-------------------------------|--------7----------------------|
D|-------------------------------|-------------------------------|
A|-------------------------------|-------------------------------|
E|-------------------------------|-------------------------------|

e|------- ------- ------- -------|------- ------- ------- -------|
B|7-------7---------7B8-R-7------|-------------------------------|
G|-------------------------------|7------------------------------|
D|-------------------------------|----7---4----------------------|
A|-------------------------------|-------------------------------|
E|-------------------------------|-------------------------------|

 
  CODA
  01:48

e|2------ 2------ 2------ 2------|2------ 2------ 2------ 2------|
B|3-------3-------3-------3------|3-------3-------3-------3------|
G|2-------2-------2-------2------|2-------2-------2-------2------|
D|0-------0-------0-------0------|0-------0-------0-------0------|
A|-------------------------------|-------------------------------|
E|-------------------------------|-------------------------------|

e|------- ------- ------- -------|------- ------- ------- -------|
B|----7-\-5-------5--------------|----7-\-5-------5--------------|
G|------------7-------7---6---7--|------------7-------7---6---7--|
D|-------------------------------|-------------------------------|
A|-------------------------------|-------------------------------|
E|-------------------------------|-------------------------------|

e|------- ------- ------- -------|------- ------- ------- -------|
B|-------------------------------|-------------------------------|
G|----7-\-6---4---6---4-------4--|----7-\-6---4---6---4-------4--|
D|------------------------7------|------------------------7------|
A|-------------------------------|-------------------------------|
E|-------------------------------|-------------------------------|



                                 (.
                                  G5
e|2------ 2------ 2------ 2------|3------ ------- ------- -------|
B|3-------3-------3-------3------|3------------------------------|
G|2-------2-------2-------2------|0------------------------------|
D|0-------0-------0-------0------|0------------------------------|
A|-------------------------------|-------------------------------|
E|-------------------------------|-------------------------------|

e|------- ------- ------- -------|------- ------- ------- -------|
B|----7-\-5-------5--------------|8------------------------------|
G|------------7-------7---6---7--|-------------------------------|
D|-------------------------------|-------------------------------|
A|-------------------------------|-------------------------------|
E|-------------------------------|-------------------------------|

e|------- ------- ------- -------|------- ------- ------- -------|
B|-------------------------------|-------------------------------|
G|----7-\-6---4---6---4-------4--|7------------------------------|
D|------------------------7------|5------------------------------|
A|-------------------------------|-------------------------------|
E|-------------------------------|-------------------------------|








        B  Bend
        R  Release
        /  Slide up
        \  Slide down
        H  Hammer-on
        P  Pull-off
        ~  Vibrato
        +  Harmonic
        x  Mute note
        .  Play note like a dot in standard notation
        ^  Ties two notes together
        (. Pause





Comments


Popular Beatles tabs & chords
A Hard Day's Night Bass Tabs
A Hard Day's Night 2 Bass Tabs
Help! 1 Bass Tabs
Here Comes The Sun 1 Bass Tabs
*You Know My Name 1 Tabs
Ask Me Why Tabs
Dear Prudence Tabs
Dig A Pony With Tabs
Don't Let Me Down Tabs
I Feel Fine 1 Tabs


Song lyrics



↑ Back to top | Tablatures and chords are parodies/interpretations of the original songs. You may use it for private study, scholarship, research or language learning purposes only
© 2014 AZChords.com Contact us | Privacy policy | DMCA | Add/correct tabs | Request tabs | Top 50 tabs